top separator

Home

Forum

What's New

Submit a Tab

FAQ

Links

Contact Us

Link to Us

MetalTabs.com logo

Bands

0-9

A

B

C

D

E

F

G

H

I

J

K

L

M

N

O

P

Q

R

S

T

U

V

W

X

Y

Z

Search

What

Where
 

Avulsed - "Amidst The Macabre (instrumental)" Guitar Tab

Plain Text Version
More Avulsed Tabs

Hits: 5737
Rated: 3.50 out of 5 (8 votes)
Updated: 2002-02-12 14:58:43

 

Important note
This tab is available online because we obtained explicit permission from Avulsed or their label.


#----------------------------------PLEASE NOTE---------------------------------#
#This file is the author's own work and represents their interpretation of the #
#song. You may only use this file for private study, scholarship, or research. #
#Unless specified otherwise, this is NOT an official tab from the band members.#
#------------------------------------------------------------------------------#

  Visit MetalTabs.com for more metal tablature
  
#----------------------------------PLEASE NOTE---------------------------------#
#This file is the author's own work and represents their interpretation of the #
#song. You may only use this file for private study, scholarship, or research. #
#------------------------------------------------------------------------------#



AMIDST THE MACABRE (Avulsed)
============================
taken from Stabwound Orgasm CD
more tabs: http://www.avulsed.com


   G1     G1/G2  		SOLO1
e:------|----------------------------------------------------------------------|
B:------|----------------------------------------------------------------------|
G:---4--|-----------4-----------4----------4-----------------------------------|
D:---6--|--------5--6--------5--6-------5--6---------5-------------------------|
A:---6--|--------7--6--------7--6-------7--6---------7-------------------------|
E:------|--0--0--7-----0--0--7-----0-0--7------0--0--7-------------------------|


			      SOLO 2
e:-----------------------------------------------------------------------------|
B:-----------------------------------------------------------------------------|
G:-----------------------------------------------------------------------------|
D:--4--4--4-------------------4--4--4------------------------------------------|
A:--2--2--2--7--7--7/5--5--5--2--2--2--7-7--7/5--5/4--4------------------------|
E:--2--2--2--5--5--5/3--3--3--2--2--2--5-5--5/3--3/2--2------------------------|


END
e:-----------------------------------------------------------------------------|
B:-----------------------------------------------------------------------------|
G:-----------------------------------------------------------------------------|
D:---4----------(4)--(4)-------------------------------------------------------|
A:---2----------(4)--(4)-------------------------------------------------------|
E:---2----------(2)--(2)-------------------------------------------------------|


SOLO 1

e:-----------------------------------------------------------------------------|
B:-----------------------------------------------------------------------------|
G:--------------------------------------------------------8--------------------|
D:-----2/6~---8--9---2/6~---8--9---2--4--5/7~---5--4h5p4/26--------------------|
A:-----------------------------------------------------------------------------|
E:-----------------------------------------------------------------------------|

e:-----------------------------------------------------------------------------|
B:-----------------------------------------------------------------------------|
G:-----------------------------------------------------------------------------|
D:------8--9--2/6~---8--9/11--9~--8h9h8h9p8---6h8h6h8p6----4~------------------|
A:-----------------------------------------------------------------------------|
E:-----------------------------------------------------------------------------|


SOLO 2

e:-----------------------------------------------------------------------------|
B:-----------------------------------------------------------------------------|
G:-----------16--14~--16--15h16p15----12--15--12h15p12---11--9--11--12--12/16--|
D:--16~--17--------------------------------------------------------------------|
A:-----------------------------------------------------------------------------|
E:-----------------------------------------------------------------------------|

e:-----------------------------------------------------------------------------|
B:-----------------------------------------------------------------------------|
G:--14~--16--15h16p15--------15------------------------------------------------|
D:----------------------17--------17-------------------------------------------|
A:-----------------------------------------------------------------------------|
E:-----------------------------------------------------------------------------|




Guitar Tab taken of http://www.avulsed.com - Official gallery of gore

  Visit MetalTabs.com for more metal tablature

bottom separator

Contact Us | Privacy Policy | Disclaimer | Legal Notice
Copyright © 2001-2014 MetalTabs.com. All Rights Reserved.