top separator

Home

Forum

What's New

Submit a Tab

FAQ

Links

Contact Us

Link to Us

MuSpy.com

MetalTabs.com logo

Bands

0-9

A

B

C

D

E

F

G

H

I

J

K

L

M

N

O

P

Q

R

S

T

U

V

W

X

Y

Z

Search

What

Where
 

Twin Obscenity - "The Legacy" Guitar Tab

Plain Text Version
More Twin Obscenity Tabs

Hits: 3401
Rated: 3.50 out of 5 (2 votes)
Updated: 2002-01-17 16:19:13

 

By:

Vortigern

sendpm.gif

email.gif

Important note
We did our best to reach Twin Obscenity and ask for their permission to publish this tab. Unfortunately they did not respond to our requests or we could not find a way to contact them. This tab is available online until Twin Obscenity tells us to take it down.


#----------------------------------PLEASE NOTE---------------------------------#
#This file is the author's own work and represents their interpretation of the #
#song. You may only use this file for private study, scholarship, or research. #
#Unless specified otherwise, this is NOT an official tab from the band members.#
#------------------------------------------------------------------------------#

  Visit MetalTabs.com for more metal tablature
  
Twin Obscenity
The Legacy

From the album 'Bloodstone' (2001)

You know all the copyright stuff, so I'm not going to give you all that.
This is my second tab and I feel it's pretty correct. In any case, for comments,
corrections, murder charges and stalking mail me at guy@freemail.hammerfall.net
Tabbed by Ice Master Vortigern

Twin Obscenity is:
Dolgar: vox
Tonje Ettesvoll: vox
Atle Wiig: guitars & vox
Jo Arild Toennessen: bass
Knut Naesje: battery


Tuning: normal E

Riff 1
|-----------------------|
|-----------------------|
|-----------------------|
|-7-777-7-777-7-777-5-8-|
|-5-555-5-555-5-555-3-6-|
|-----------------------|

Riff 2
|----------------------|
|----------------------|
|----------------------|
|-7-7777-2-2222-3-3333-|
|-5-5555-0-0000-1-1111-|
|----------------------|

Riff 3a
|----------------------------------|
|----------------------------------|
|----------------------------------|
|-7-7-5-5/8-8-8--7-7-5-5/7-7/8-8/10|
|-5-5-3-3/6-6-6--5-5-3-3/5-5/6-6/8-|
|----------------------------------|

Riff 3b
Exactly the same as 3a, only one string lower, which means that you play with
the top 2 (E and A instead of A and D)

Riff 4 (how fast can you play?)
|---------------------------------|
|---------------------------------|
|---------------------------------|
|-7-8-7-5-7---7-----7-8-7-5-------|
|-----------7---------------5-8-7-|
|---------------------------------|

Riff 5 (again pretty speedy)
|---------------------|
|---------------------|
|---------------------|
|---------------------|
|-5-3-5-6-5-6-5---6-5-|
|---------------5-----|

Riff 6
Same as riff 5 only this time one string higher (not E and A but A and D).

Song Structure:
Riff 1: 4x
Riff 2: 2x
Riff 1: 4x
Riff 2: 4x
Riff 1: 4x
Riff 2: 4x
Riff 3a: 2x
Riff 3b: 2x
Riff 4: 2x
Riff 5: 2x
Riff 3a: 2x
Riff 3b: 2x
Riff 3a: 2x
Riff 3b: 2x
Riff 2: 2x
Riff 1: 4x
Riff 2: 2x
Riff 3a: 2x
Riff 3b: 2x
Riff 3a: 2x
Riff 4: 2x
Riff 5: 2x
Riff 6: 2x
The end...

  Visit MetalTabs.com for more metal tablature

bottom separator

Contact Us | Privacy Policy | Disclaimer | Legal Notice
Copyright © 2001-2014 MetalTabs.com. All Rights Reserved.