top separator

Home

Forum

What's New

Submit a Tab

FAQ

Links

Contact Us

Link to Us

MuSpy.com

MetalTabs.com logo

Bands

0-9

A

B

C

D

E

F

G

H

I

J

K

L

M

N

O

P

Q

R

S

T

U

V

W

X

Y

Z

Search

What

Where
 

Mithotyn - "Shadows of the Past" Guitar Tab

Plain Text Version
More Mithotyn Tabs

Hits: 3865
Rated: 3.25 out of 5 (4 votes)
Updated: 2002-01-15 16:18:25

 

Important note
This tab is available online because we obtained explicit permission from Mithotyn or their label.


#----------------------------------PLEASE NOTE---------------------------------#
#This file is the author's own work and represents their interpretation of the #
#song. You may only use this file for private study, scholarship, or research. #
#Unless specified otherwise, this is NOT an official tab from the band members.#
#------------------------------------------------------------------------------#

  Visit MetalTabs.com for more metal tablature
  
Mithotyn- Shadows of the Past (tab ver. 1.1)

from 'In the Sign of the Ravens'

Transcribed by: Nick Beato (entity@cfl.rr.com)

tune down 1 whole step (DGCFAD- low to high)

keyboard intro is same as lead melody

guitar intro
----------------------------------
----------------------------------
----------------------------------
--------4-------4---------------4-
--------2-------2-------4-------2-
------------------------2---------

part 1

gtr1
------------------------------------------------------------------------------
------------------------------------------------------------------------------
----------------------------9-11~~~--------------------------------9-11~~~----
-9-8-9-11-12-11-9-8-9-11-12-------------9-8-9-11-12-11-9-8-9-11-12------------
------------------------------------------------------------------------------
------------------------------------------------------------------------------
gtr2
------------------------------------------------------------------------------
------------------------------------------------------------------------------
------------------------------------------------------------------------------
-4"-----------------4"-------------------------------------4"-----------------
-2"-------4"--------2"---------------------------4"--------2"-----------------
----------2"-------------------------------------2"---------------------------

gtr1
------------------------------------------------------------------------------
------------------------------------------------------------------------------
-11-9-------------------------------------------------------------------------
------12-11-12-11-9-8-9-11-12-11-8~~~---9-8-9-11-12-11-9-8-9-11-12-11-9~~~----
------------------------------------------------------------------------------
------------------------------------------------------------------------------
gtr2
------------------------------------------------------------------------------
------------------------------------------------------------------------------
------------------------------------------------------------------------------
-7"-------------------4"----------------4"-----------------4"-------------4---
-5"---------7"--------2"---------4"-----2"-------4"--------2"-------------2---
------------5"-------------------2"--------------2"---------------------------

part 2

gtr 1
-------------------------------------------------
-------------------------------------------------
-------------------------------------------------
-12~~~-----11-9-11-12~~-14~~~-----12-11-12-14~~--
-------------------------------------------------
-------------------------------------------------
gtr 2
-------------------------------------------------
-------------------------------------------------
-------------------------------------------------
-4----------------------2------------------------
-2----------------------0------------------------
-------------------------------------------------

gtr 1
-------------------------------------------------
-------------------------------------------------
-------------------------------------------------
-12~-----12--14------14/16~~------------16-17-16-
------9----------12------------------------------
-------------------------------------------------
gtr 2
-------------------------------------------------
-------------------------------------------------
-------------------------------------------------
-4-----------2----------7------------------------
-2-----------0----------5------------------------
-------------------------------------------------

gtr 1
-------------------------------------------------
-------------------------------------------------
-------------------------------------------------
-17~~-----16-14-16-17~~-16----14h16h14\12~~~~----
-------------------------------------------------
-------------------------------------------------
gtr 2
-------------------------------------------------
-------------------------------------------------
-------------------------------------------------
-9----------------------7------------------------
-7----------------------5------------------------
-------------------------------------------------

gtr 1
-----------------------------------
-----------------------------------
-----------------------------------
------------------------11~~~------
-10~~~------12~~~------------------
-----------------------------------  make sure you
gtr 2                                notice the
-----------------------------------  time signature
-----------------------------------  change
-----------------------------------
------------------------6----------
-5----------7-----------4----------
-3----------5----------------------

part 3

gtr 1
-------------------------------------------------------------
-------------------------------------------------------------
-------------------------------------------------------------
-12"------------9"-------------12"-------------------11"-----
-------------------------------------------------------------
-------------------------------------------------------------
gtr2
-------------------------------------------------------------
-------------------------------------------------------------
-------------------------------------------------------------
-4"----------------------------7"----------------------------
-2"-------------5"-------------5"-------------7"-------------
----------------3"----------------------------5"-------------

gtr 1
-------------------------------------------------------------
-------------------------------------------------------------
-------------------------------------------------------------
-12"------------9"-------------12"------------12"14"12"11"---
-------------------------------------------------------------
-------------------------------------------------------------
gtr2
-------------------------------------------------------------
-------------------------------------------------------------
-------------------------------------------------------------
-4"----------------------------7"----------------------------
-2"-------------5"-------------5"-------------7"-------------
----------------3"----------------------------5"-------------

gtr 1
-------------------------------------------------------------
-------------------------------------------------------------
-------------------------------------------------------------
-12"------------9"-------------12"----------9"12"----14"-----
-------------------------------------------------------------
-------------------------------------------------------------
gtr2
-------------------------------------------------------------
-------------------------------------------------------------
-------------------------------------------------------------
-4"----------------------------7"----------------------------
-2"-------------5"-------------5"-------------7"-------------
----------------3"----------------------------5"-------------

gtr 1
-------------------------------------------------------------
-------------------------------------------------------------
-------------------------------11"---------------------------
-11"----------------------------------14"-----12"----11"-----
-------------------------------------------------------------
-------------------------------------------------------------
gtr2
-------------------------------------------------------------
-------------------------------------------------------------
-------------------------------------------------------------
-6"----------------------------7"----------------------------
-4"----------------------------5"----------------------------
-------------------------------------------------------------

part 4
i'm not too sure about guitar 2

gtr1
---------------------------------------------------------------
---------------------------------------------------------------
-12~~~---------14~~~---------11~~~~-------11-12-11~~----/16-14-
--------12~~~---------14~~~------------------------------------
---------------------------------------------------------------
---------------------------------------------------------------
gtr2
---------------------------------------------------------------
---------------------------------------------------------------
---------------------------------------------------------------
---------------------------------------------------------------
-5------7------7------9------10---------------------------------
-3---33-3---33-5---55-5---55-7---------------------------------

gtr1
---------------------------------------------------------------
---------------------------------------------------------------
-12~~~-12\11-11\9-9~~~-----11--/12-11-------11-12-11~~---/14-12
---------------------------------------------------------------
---------------------------------------------------------------
---------------------------------------------------------------
gtr2
---------------------------------------------------------------
---------------------------------------------------------------
---------------------------------------------------------------
---------------------------------------------------------------
-5-------7--------7-------9--------10--------------------------
-3----33-3-----33-5----55-5-----55-7---------------------------

gtr1
------------------------------------------
------------------------------------------
------------------------------------------
-14~~----12~~-----------------------------
------------------------------------------
------------------------------------------
gtr2
------------------------------------------
------------------------------------------
---------4--------------------------------
---------4--------------------------------
-5-------5-------------5-----4-----9------
-3---------------------3-----5-----7------

part 5

gtr1&2 tremolo pick everything
-----------------------------------------------------------------
-----------------------------------------------------------------
-----------------------------------------------------------------
-----4---2---4---------------2-------4---2---4---2---------------
-2---------------4-------5-------2-----------------------5---4---
-----------------------------------------------------------------

-----------------------------------------------------------------
-----------------------------------------------------------------
-----------------------------------------------------------------
-5-------4-------5---2---4---5---7-------9---7-----5-7-5-4-------
-----------------------------------------------------------------
-----------------------------------------------------------------

-----------------------------------------------------------------
-----------------------------------------------------------------
-----------------------------------------------------------------
-5-------4-------5---2---4---5---7-------9---7-----5-7-5-4-------
-----------------------------------------------------------------
-----------------------------------------------------------------

part 6

gtr 1&2
-------------------------------------------------------------------------
-------------------------------------------------------------------------
-------------------------------------------------------------------------
-4---6-4-7-------7---9-7-11------4---6---7---6---------------------------
-2---4-2-5-------5---7-5-9-------2---4---5---4---------------------4-4-4-
-------------------------------------------------3-3-3-5-5-5-7-7-7-------

part 7a
---------------------------------
---------------------------------
---------------------------------
-4-------2-----------------------
-2-------0-------4-------5---7---
-----------------2-------3---5---

part 7b

---------------------------------------------------------------
---------------------------------------------------------------
---------------------------------------------------------------
-4-----------2-------------------------------------------------
-2-----------0---------------4-----------5-----5-----7-----7---
-----------------------------2-----------3--33-3--33-5--55-5-55

solo

------------------------------------------------------
-15~~~---14-12~~~~-14-15-14--15-14-12h14p12\10~~~~----
------------------------------------------------------
------------------------------------------------------
------------------------------------------------------
------------------------------------------------------

-------------------------------------------------
--------/14~~--15~~~~~-12-10-12-14-14bh r-12-10--
-11~~~~------------------------------------------
-------------------------------------------------
-------------------------------------------------
-------------------------------------------------

------------------------------------------------------
-15~~~---14-12~~~~-14-15-14--15-14-12h14p12\10~~~~----
------------------------------------------------------
------------------------------------------------------
------------------------------------------------------
------------------------------------------------------

-------------------------------------------------
--------/14~~--15~~~~~-12-10-12-14-14bh r-12-10--
-11~~~~------------------------------------------
-------------------------------------------------
-------------------------------------------------
-------------------------------------------------

---------------------------------------------------------------
-12~~~~----12-14~~~-12-14-15-14-12-----------------------------
--------14-------------------------14-11~~~~-11-12-11-9-11~~~~-
---------------------------------------------------------------
---------------------------------------------------------------
---------------------------------------------------------------


---------------------------------------------------------------
---------------------------------------------------------------
-11/12-12~~~--/14-\12-----11~~~~-11-12-11-9-11~~~~-------------
---------------------------------------------------------------
---------------------------------------------------------------
---------------------------------------------------------------

-----------------------------------------------
-----------------------------------------------
-----------------------------------------------
-12-14-12-11-12~~~~~---11-12-11-9-11~~~~-------
-----------------------------------------------
-----------------------------------------------

---------------------------------------------------------------
-------------------------------12~~~~-10~~~~-8h10p8-7~~~~~~----
-------------------/11---12-14---------------------------------
-11-12-11-9-11~~~~---------------------------------------------
---------------------------------------------------------------
---------------------------------------------------------------

part 8 (transition)

gtr1 tremolo pick
----------------------------------------------------
----------------------------------------------------
----------------------------------------------------
-12-----9----------12--11--12-----9----------12--11-
-14-----10--------(10)-12--14-----10--------(10)-12-
----------------------------------------------------

----------------------------------------------------
----------------------------------------------------
----------------------------------------------------
-12-----9----------12--14--11-----------------------
-14-----10--------(10)-12--12----------12-----------
---------------------------------------14-----------

ending

gtr1
---------------------------------------------------------------
---------------------------------------------------------------
---------------------------------------------------------------
-------------------------7-----11-----12----14-----12~~~~~-----
-------------------4-4-4---------------------------------------
-3-3-3-5-5-5-7-7-7---------------------------------------------
gtr2
---------------------------------------------------------------
---------------------------------------------------------------
---------------------------------------------------------------
---------------------------------------------------------------
-------------------4-4-4-5-5-5-7-7-7-9-9-9-111111-9------------
-3-3-3-5-5-5-7-7-7-------3-3-3-5-5-5-7-7-7-9-9-9--7------------

song structure

0:00 synth intro (play guitar intro chords)
0:10 part 1 (2x)
0:31 part 2 (2x)
0:59 part 1 (1x)
1:09 part 3 (1x)
1:20 part 4 (1x)
1:33 part 3 (1x)
1:44 part 4 (1x)
1:57 part 5 (2x)
2:40 part 6 (4x)
3:09 part 7a (2x) w/ solo
3:31 part 7b (2x) w/ solo
3:51 part 1 (2x) w/o gtr 2 first measure first time
4:12 part 2 (2x)
4:39 part 2 (2x) palm muted (listen to cd)
5:07 part 8 (1x)
5:19 part 3 (1x)
5:29 part 4 (1x)
5:42 part 3 (1x)
5:53 part 4 (1x)
6:05 part 5 (2x)
6:47 part 6 (4x)
7:16 ending

please email any corrections or comments:
entity@cfl.rr.com

This file was downloaded from...
Musical Manifestations
(http://home.cfl.rr.com/xezlorir/mm)
if the link is not found, email: Xezlorir@hotmail.com

enjoy!

  Visit MetalTabs.com for more metal tablature

bottom separator

Contact Us | Privacy Policy | Disclaimer | Legal Notice
Copyright © 2001-2014 MetalTabs.com. All Rights Reserved.