top separator

Home

Forum

What's New

Submit a Tab

FAQ

Links

Contact Us

Link to Us

MetalTabs.com logo

Bands

0-9

A

B

C

D

E

F

G

H

I

J

K

L

M

N

O

P

Q

R

S

T

U

V

W

X

Y

Z

Search

What

Where
 

Mithotyn - "King of the distant forest" Guitar Tab

Plain Text Version
More Mithotyn Tabs

Hits: 6475
Rated: 5.00 out of 5 (10 votes)
Updated: 2002-01-15 16:17:57

 

Important note
This tab is available online because we obtained explicit permission from Mithotyn or their label.


#----------------------------------PLEASE NOTE---------------------------------#
#This file is the author's own work and represents their interpretation of the #
#song. You may only use this file for private study, scholarship, or research. #
#Unless specified otherwise, this is NOT an official tab from the band members.#
#------------------------------------------------------------------------------#

  Visit MetalTabs.com for more metal tablature
  
Mithotyn- King of the Distant Forest (tab ver. 1.0)

Transcribed by: Nick Beato (entity@cfl.rr.com)

tune down 1 whole step (DGCFAD- low to high)

acoustic intro

-0--------------------------------0--------------0---------------
-1--------------------------------1--------------0---------------
-2--------------------------------0--------------0---------------
-2--------------------------------2--------------2---------------
-0--------------------------------3------------------------------
-----------------------------------------------------------------

---------------------------------0-----1-----3---3-----5-----7---
-5-----3-----5---6-----5-----3-----------------------------------
---------------------------------------------------0-----0-------
---2-----2---------2-----2---------2-----2-----------------------
-----0-----0---0-----0-----0---0-----3-----3---3-----------------
-----------------------------------------------------0-----0---0-

riff 1

gtr1
-----------------------------------------------------------------------------
-----------------------------------------------------------------------------
-----------------------------------------------------------------------------
----------------------------------------------------------5------7------9----
-7------5------7----8------7------5----7------8------10-----7777---7777---77-
---5555---5555---55---5555---5555---55---8888---8888---88--------------------
gtr2
-----------------------------------------------------------------------------
-----------------------------------------------------------------------------
-----------------------------------------------------------------------------
-----------------------------------------------------------------------------
-7"--------------------------------------10"--------------14"----------------
-5"--------------------------------------8"---------------12"----------------

riff 2

gtr1
-----------------------------------------------------------------------------
-----------------------------------------------------------------------------
---------------9p7----------------9p7----------------7p5----------------7p5--
-10-777-9-777-------10-777-9-777-------9-555--7-555-------9--555-7--555------
-----------------------------------------------------------------------------
-----------------------------------------------------------------------------
gtr2
-----------------------------------------------------------------------------
-----------------------------------------------------------------------------
-----------------------------------------------------------------------------
----------------------------------------------------------9"-----------------
-15"----------------12"----------------5"-----------------7"-----------------
-13"----------------10"----------------3"------------------------------------

gtr1
-----------------------------------------------------------------------------
-----------------------------------------------------------------------------
---------------5p4----------------5p4---------------------------------ph-----
-7-333--5-333-------7--333-5--333------0-000--2-000--3------0-------5-7~~~---
--------------------------------------------------------------5-7-8----------
-----------------------------------------------------------------------------
gtr2
-----------------------------------------------------------------------------
-----------------------------------------------------------------------------
-----------------------------------------------------------------------------
--------------------7"-----------------7-777--7------7--------------5-7~~~---
-3"-----------------5"-----------------5-555--5-555--5--------5-7-8----------
-1"--------------------------------------------------------------------------

riff 3 (variation of riff 1 used for first half of verse)

gtr1
-----------------------------------------------------------------------------
-----------------------------------------------------------------------------
-----------------------------------------------------------------------------
----------------------------------------------------------5------7------5h7h9
-7------5------7----8------7------5----7------8------10-----7777---7777------
---5555---5555---55---5555---5555---55---8888---8888---88--------------------
gtr2
-----------------------------------------------------------------------------
-----------------------------------------------------------------------------
-----------------------------------------------------------------------------
-----------------------------------------------------------------------------
-7"--------------------------------------10"--------------2"-----------------
-5"--------------------------------------8"---------------0"-----------------

riff 4

gtr1
--------------------------------------------------------------------
--------------------------------------------------------------------
-----9p7-----------------------------9p7-----7---7h9p7\5-7/9-9~~----
---------9-------7h9p7\5-5/7-7~~---------9--------------------------
-------------10-----------------------------------------------------
--------------------------------------------------------------------
gtr2
--------------------------------------------------------------------
--------------------------------------------------------------------
--------------------------------------------------------------------
---------7-------------------------------7--------------------9-----
-----7-------7-------5-------3-------7-------7-------10--7----------
-5---------------3-------1-------5---------------8------------------

gtr1
--------------------------------------------------------------------
--------------------------------------------------------------------
-----9p7-------------------------7-4h5h7/9~7p5p4-7-5-4-7-5-4-7/9----
---------9-------7h9p7\5-5/7-7~~------------------------------------
-------------10-----------------------------------------------------
--------------------------------------------------------------------
gtr2
--------------------------------------------------------------------
--------------------------------------------------------------------
--------------------------------------------------------------------
---------7----------------------------------------------------------
-----7-------7-------5-------3---------10-------14------------------
-5---------------3-------1-------8--------------12------------------

riff 5

gtr1
--------------hammer-on/pull-offs are not spaced right---------------
---------------------------------------------------------------------
---------9------------------------------------------------10-9-7h9p7-
-10-9-10---10-9-10-9-10-14-12-10h12p10-9-7-9-10-9-7-6-7-9------------
---------------------------------------------------------------------
---------------------------------------------------------------------
gtr2
---------------------------------------------------------------------
---------------------------------------------------------------------
-2-------------------------------------------------------------------
-2-------------------------------------5------------9---9-5----5-----
-0-------------------------------------5------------777-7-3-33-3-----
---------------------------------------3-----------------------------

riff 6

gtr1&2 (trem pick all)
-------------------------------------------------
-------------------------------------------------
-------------------------------------------------
-------2-----------------------------------------
-3-2-3---3-2-3-2-3-7-5---------------------8-7-5-
-----------------------8-7-5-7-8-7-5-4-5-7-------

gtr1
-------------------------------------------------
-------------------------------------------------
-------------------------------------------------
-------2-----------------------------------------
-3-2-3---3-2-3-2-3-7-5---------------------8-7-5-
-----------------------8-7-5-7-8-7-5-4-5-7-------
gtr2
-------------------------------------------------
-------------------------------------------------
-------------------------------------------------
-------2-----------------------------------7-5-3-
-3-2-3---3-2-3-2-3-7-5---------------------------
-----------------------8-7-5-7-8-7-5-4-5-7-------

riff 7 (hard to hear this, but i think it's right)

both guitars tremolo pick

gtr1
----------------------------------------------------------
----------------------------------------------------------
----------------7---------------------------9-7-----------
-10-9-10-7-9-10---10-9-6-7-9-10-9-10-7-9-10-----10-9-10-9-
----------------------------------------------------------
----------------------------------------------------------
gtr2
---------------------------------------------------------------
---------------------------------------------------------------
---------------------------------------------------------------
---------------------------------------------------------------
---------8------5------7-------------8------5---7/8-8/10-10/12-
-5---------------------------5---------------------------------

solo 1
i'm pretty sure i got the notes right, except the last part
the timing is a whole different story...

------------------------------------
------------------------------------
------------------------------------
-7~~~~~~-12~~~~~~~-9-12-9-----------
--------------------------10~~~~~~--
------------------------------------

---------------------------------
---------------------------------
---------------------------------
--7---9-10-----------------------
-----------10---7--8--10-12-7~~~-
---------------------------------

--------------------------------------------------------
-trem pick----------------------------------|-----------
--------------------------------------------------------
-14-----10-12---14---12---10---15-----14-12-14~~~~------
--------------------------------------------------------
--------------------------------------------------------

---------------------------------------------------------------
---------------------------------------------------------------
--------------------------------------------------------14~~~~-
---------------------------------------------------------------
h15---------------h14h15---------------------------------------
---------h13-----------------h13---h13---h15--h15--h17---------

bridge

------------         --------------------------
-(14)~~~----         --------------------------
-2----------fade out --------------------------
-2----------         -------------2-2----------
-0----------         -00000000000-0-0-00000000-
------------         --------------------------

riff 8

-----------------------------------------------------------------
-----------------------------------------------------------------
-----------------------------------------------------------------
---------10-----7------9-------------10-----7---9/10-10/12-12/14-
-7-------8------5------7-----7-------8------5---7/8---8/10-10/12-
-5---------------------------5-----------------------------------

solo 2

-------------------------------------------------------------
----------------------------------------trem---|-------------
----------------14~~~~-12-14-12-14~~~~--12-10-9---9-10-9-7~~- x2
-7~~~~~------------------------------------------------------
-------------------------------------------------------------
-------------------------------------------------------------

all 2x

----------------------------------------------
----------------------------------------------
----------------------------------------------
-7/9-9/10-12~~-10-9-10~~-10\9-9\7-5/7----------
-------------------------------------8-7h8p7--
----------------------------------------------

-----------------------------------------------------
--------------------------------------13-12----------
--------------------------------14----------12h14p12-
-7/9-9/10-9~~-7\5~~-------14-------------------------
--------------------12-15----------------------------
-----------------------------------------------------

end

2 gtrs
------------
-14~~~------
-2----------
-2----------
-0----------
------------

song structure

0:00 intro
0:06 riff 1
0:11 riff 2
0:22 riff 3>1>2
0:43 riff 4
1:24 riff 3>1>2
1:46 riff 5
2:01 riff 6
2:17 riff 7
2:33 riff 7 with solo 1
2:49 bridge
2:56 riff 4
3:17 riff 3>1>2
3:59 riff 6
4:15 riff 7
4:31 riff 7 with solo 2
4:48 riff 8 with solo 2
end

please email any corrections or comments:
entity@cfl.rr.com

This file was downloaded from...
Musical Manifestations
(http://home.cfl.rr.com/xezlorir/mm)
if the link is not found, email: Xezlorir@hotmail.com


enjoy!

  Visit MetalTabs.com for more metal tablature

bottom separator

Contact Us | Privacy Policy | Disclaimer | Legal Notice
Copyright © 2001-2014 MetalTabs.com. All Rights Reserved.