top separator

Home

Forum

What's New

Submit a Tab

FAQ

Links

Contact Us

Link to Us

MetalTabs.com logo

Bands

0-9

A

B

C

D

E

F

G

H

I

J

K

L

M

N

O

P

Q

R

S

T

U

V

W

X

Y

Z

Search

What

Where
 

My Dying Bride - "Le Figlie Della Tempesta" Bass Tab

Plain Text Version
More My Dying Bride Tabs

Hits: 6402
Rated: 4.67 out of 5 (6 votes)
Updated: 2001-12-23 15:43:04

 

Important note
This tab is available online because we obtained explicit permission from My Dying Bride or their label.


#----------------------------------PLEASE NOTE---------------------------------#
#This file is the author's own work and represents their interpretation of the #
#song. You may only use this file for private study, scholarship, or research. #
#Unless specified otherwise, this is NOT an official tab from the band members.#
#------------------------------------------------------------------------------#

  Visit MetalTabs.com for more metal tablature
  
Band: My Dying Bride
Song: Le Figlie Della Tempesta
Album: The Dreadful Hours
Date: December 8th

Transcribed by: Andre Roy

- messianicmortis@hotmail.com -
---------------------------------------------

Tuning: C#

Riff A (1:11)

-------------4-4-4-------------------4-4-4-------------------4-4-4-------
-2-2-2-5-5-5-------5-5-5-4-4-4-5-5-5-------5-5-5-3-3-3-5-5-5-------5-5-5-
-------------------------------------------------------------------------
-------------------------------------------------------------------------

-------------4-4-4-------
-2-2-2-5-5-5-------5-5-5-
-------------------------
-------------------------

Riff B (1:23)

-------------4-4-4-------------------4-4-4-------------------4-4-4-----------
-2-2-2-5-5-5-------5-5-5-4-4-4-5-5-5-------5-5-5-3-3-3-5-5-5-------5-5-5-5---
-----------------------------------------------------------------------------
-----------------------------------------------------------------------------

Riff C (3:13)

-------------------------------------------------------------------------
-------------------------------------------------------------------------
-------------2-2-2-------------------2-2-2-------------------2-2-2-------
-0-0-0-3-3-3-------3-3-3-2-2-2-3-3-3-------3-3-3-1-1-1-3-3-3-------3-3-3-

-------------------------
-------------------------
-------------2-2-2-------
-0-0-0-3-3-3-------3-3-3-

Riff D (5:39)

-------------4-4-4-------------------4-4-4-------------------4-4-4-------
-2-2-2-5-5-5-------5-5-5-4-4-4-5-5-5-------5-5-5-3-3-3-5-5-5-------5-5-5-
-------------------------------------------------------------------------
-------------------------------------------------------------------------

-------------11-12-11-9-11-9-
-2-2-2-5-5-5-----------------
-----------------------------
-----------------------------

Riff E (5:41)

-8-8-8-8-8-8-8-8-8-8-9-11-12-12-12-12-12-12-11-12-11-9-11-9-
------------------------------------------------------------
------------------------------------------------------------
------------------------------------------------------------

Riff F (6:11)

-8-8-8-8-8-8-8-8-8-8-9----------------------------
-----------------------10-9-9-9-9-9-9-5-7-5-4-5-4-
--------------------------------------------------
--------------------------------------------------


Riff A 1 time
Riff B 1 time
Riff C 2 times
Riff A 17 times
Riff D 1 time
Riff E 5 times
Riff F 1 time
Riff A 8 times
Riff C 2 times
Riff A 10 times

  Visit MetalTabs.com for more metal tablature

bottom separator

Contact Us | Privacy Policy | Disclaimer | Legal Notice
Copyright © 2001-2014 MetalTabs.com. All Rights Reserved.