top separator

Home

Forum

What's New

Submit a Tab

FAQ

Links

Contact Us

Link to Us

MuSpy.com

MetalTabs.com logo

Bands

0-9

A

B

C

D

E

F

G

H

I

J

K

L

M

N

O

P

Q

R

S

T

U

V

W

X

Y

Z

Search

What

Where
 

Gamma Ray - "Rebellion in dreamland" Guitar Tab

Plain Text Version
More Gamma Ray Tabs

Hits: 16741
Rated: 4.08 out of 5 (24 votes)
Updated: 2001-12-23 14:58:38

 

Important note
This tab is available online because we obtained explicit permission from Gamma Ray or their label.


#----------------------------------PLEASE NOTE---------------------------------#
#This file is the author's own work and represents their interpretation of the #
#song. You may only use this file for private study, scholarship, or research. #
#Unless specified otherwise, this is NOT an official tab from the band members.#
#------------------------------------------------------------------------------#

  Visit MetalTabs.com for more metal tablature
  
Rebellion In Dreamland
By Gamma Ray


>From album "Land Of The Free" (1995)

Transcribed by Teemu Haapanen
Email: thaapanen@pp.nic.fi



  Intro (Acoustic Gtr.1)
|--------------------------------------------------------------------------------|
|---------------------------0------------------------------------------0-(0)-----|
|------------------------------2h4p2---------------------------------------------|
|----5---4-5-4h5p4-2----2-5----------5-4-----5---4-5-4h5p4-2-----2--5--------5-4-|
|---------------------3---------------------------------------3------------------|
|-0----0----------------------------------0----0---------------------------------|
|										 |
|										 |
| Intro (Acoustic Gtr.2)                			                 |
|--------------------------------------------------------------------------------|
|--------------------------------------------------------------------------------|
|--------------------------------------------------------------------------------|
|--------------------------------------------------------------------------------|
|------------0h2p0-------------------0h2-----------------0h2---------------------|
|-0-------------------3-------------------0-------------------3------------------|
|										 |
|	                    					                 |
| (Acoustic Gtr.1)							         |
|-------------------------------------------------2------------------------------|
|---------------------------0-----------------3-------3--------0-(0)-----5-----7-|
|------------------------------2h4p2--------2---2---2---2----------------5-----7-|
|----5---4-5-4h5p4-2----2-5----------5-4--0------------------4-------------------|
|---------------------3------------------------------------2------2---3-----5----|
|-0----0-------------------------------------------------------------------------|
|										 |
|						                                 |
| (Acoustic Gtr.2)  							         |
|--------------------------------------------------------------------------------|
|--------------------------------------------------------------------------------|
|--------------------------------------------------------------------------------|
|-----------------------------------------0------------------------------2-----4-|
|------------0h2p0--------------------------------0------------2------3-----5----|
|-0-------------------3------------------------------------2---------------------|



  Verse 1 (Acoustic Gtr.1)
|--------------------------------------------------------------------------------|
|---------------------------0----------------------------------------0-(0)-------|
|------------------------------2h4p2---------------------------------------------|
|---5---4--5-4h5p4-2----2-5----------5-4-----2---4-5-4h5p4-2------5--------5-4---|
|---------------------3---------------------------------------3------------------|
|-0---0-----------------------------------0----0---------------------------------|
|										 |
|										 |
| Verse 1 (Acoustic Gtr.2)					                 |
|--------------------------------------------------------------------------------|
|--------------------------------------------------------------------------------|
|--------------------------------------------------------------------------------|
|--------------------------------------------------------------------------------|
|------------0h2p0-------------------0h2------------------0-2-3------------3-2---|
|-0-------------------3-------------------0--------------------------------------|
|
|
| (Acoustic Gtr.1)
|-------------------------------------------------2----------------------------------------|
|---------------------------0-----------------3-------3--------0-(0)-----5----7------0-(0)-|
|------------------------------2h4p2--------2---2---2---2----------------5----7------------|
|----5---4-5-4h5p4-2----2-5----------5-4--0------------------4---------------------4-------|
|---------------------3------------------------------------2------2---3----5-----2------2--|
|-0----0-----------------------------------------------------------------------------------|
|										           |
|								                           |
| (Acoustic Gtr.2)						                           |
|-------------------------------------------------2----------------------------------------|
|---------------------------------------------3-------3--------0-(0)-----------------0-(0)-|
|-------------------------------------------2---2---2---2----------------------------------|
|-----------------------------------------0------------------4---------------------4-------|
|----------------0h2---------------------------------------2------2-(2)----3--0--2------2--|
|-0-------------------3--------------------------------------------------------------------|
|
|
| (Gtr.1)
|---------|
|---------|
|---------|
|-5---7---|
|-3---5---|
|---------|
|         |
|         |
| (Gtr.2) |
|---------|
|---------|
|---------|
|---5---7-|
|-3---5---|
|---------|




 Riff 1 (2x)
|------------------------------------------------------------------|
|*----------------------------------------------------------------*|
|------------------------------------------------------------------|
|---------9-7-9---4-5-7---4-5--7----------9-7-9---4-5-7---4-5--7---|
|*-2------7-5-7---2-3-5---2-3--5---2------7-5-7---2-3-5---2-3--5--*|
|--0--0-0--------------------------0--0-0--------------------------|
      . .                             . .



 Verse Riff 1 (4x)				       (4th time)
|------------------------------------------------------|-------|
|*----------------------------------------------------*|-------|
|------------------------------------------------------|-------|
|--7/9-----9\7-----7/9--9\7--9------5-----7-7--5-4-----|-------|
|*-5/7-----7\5-5---5/7--7\5--7------3--5--5-5------5--*|-2-(2)-|
|------0-0-------7--------------0-0----3---------------|-0-(0)-|
       . .     . .              . .



 Verse Riff 2 (2x)
|---------------------------------------------------------------------------------------------|
|*-------------------------------------------------------------------------------------------*|
|---------------------------------------------------------------------------------------------|
|--9-(9)--7-(7)--9-(9)--7-(7)--5-(5)--7-(7)--9-(9)------------------777799997777--------------|
|*-7-(7)--5-(5)--7-(7)--5-(5)--3-(3)--5-(5)--7-(7)--7777999910101010------------101010109999-*|
|---------------------------------------------------------------------------------------------|
                                                    ........ . . . ............. . . . .....



 Verse Riff 3
|------------------------------------------------------------|
|------------------------------------------------------------|
|------------------------------------------------------------|
|-2h4-----2h4-----7\4-------------2h4-----7\4----------------|
|-0h2-2-2-0h2-2-2-5\2-2-2-----2-3-0h2-2-2-5\2-2-2--7-7--5-5--|
|-------------------------3-5----------------------5-5--3-3--|
      . .     . .     . . . .         . .


|-----------------------------------------------------------------|
|-----------------------------------------------------------------|
|-----------------------------------------------------------------|
|-2h4-----7\4-----2h4-------------2h4-----7\4---------7---------2-|
|-0h2-2-2-5\2-2-2-0h2-2-2-----2-3-0h2-2-2-5\2-2-2--5--5--7---5--0-|
|-------------------------3-5----------------------3-----5---3----|
      . .     . .     . . . .         . .




 Chorus (2x)
|----------------------------------------------------------------|
|*--------------------------------------------------------------*|
|----------------------------------------------------------------|
|--4---7--9--7--6--2--4-------2---4---7--9--7--6--2--4-------2---|
|*-2---5--7--5--4--0--2---5---0---2---5--7--5--4--0--2---5---0--*|
|-------------------------3------------------------------3-------|


 Riff 2
|----------------------------|
|----------------------------|
|-----6--7--6----------------|
|-7---4--5--4--9--7--5---7---|
|-5------------7--5--3---5---|
|----------------------------|



 Verse Riff 1 (3x)


 Riff 3
|-----------------------------------------------|
|-----------------------------------------------|
|-----------------------------------------------|
|-7/9-----9\7-----7/9--9\7--9------5-----7------|
|-5/7-----7\5-5---5/7--7\5--7------3--5--5--7-5-|
|-----0-0-------7--------------0-0----3-----5-3-|
      . .     . .              . .



 Riff 4
|----------------------------------------------------------------------------|
|----------------------------------------------------------------------------|
|----------------------------------------------------------------------------|
|----------------------------------------------------------------------------|
|-2-----2-----2h3p0--2-----2-----2h3p0--2-----2-----2h3p0--2-----2-----2h3p0-|
|-0-0-0-0-0-0--------0-0-0-0-0-0--------0-0-0-0-0-0--------0-0-0-0-0-0-------|
    . .   . .          . .   . .          . .   . .          . .   . .


|--------------|-----------------------------------------------------|
|--------------|-----------------------------------------------------|
|--------------|-----------------------------------------------------|
|-5-----7------|---------------------------------------5-----7-----8-|
|-3--5--5--7-5-|-2-----2-----2h3p0--2-----2-----2h3p0--3--5--5-7-9-6-|
|----3-----5-3-|-0-0-0-0-0-0--------0-0-0-0-0-0-----------3----5-7---|
                   . .   . .          . .   . .



 Riff 5 (2x)
|--------------------|
|*------------------*|
|--------------------|
|--------------------|
|*------------------*|
|--0-00-0-0-000-000--|
   . .. . . ... ...



  Verse Riff 4 (Gtr.1)
|---------------------------------------------------------|
|---------------------------------------------------------|
|-7-------7-------7---------------------------------------|
|-5---7---5---7---5---7---9----------9-7------------------|
|-----5-------5-------5---7---7-9-10-----10-9-7-10-9-7----|
|------------------------------------------------------10-|
|                             . .  . . .  . . .  . . .  .
|
| Verse
| Riff 4 (7x) (Gtr.2) (8th time)
|-------------------|-----------------------------|
|*-----------------*|-----------------------------|
|-------------------|-----------------------------|
|-------------------|--------9-7------------------|
|*-----------------*|-7-9-10-----10-9-7-10-9-7----|
|-0-00-0-0-000-000--|--------------------------10-|
  . .. . . ... ...    . .  . . .  . . .  . . .  .



  Verse Riff 5 (Gtr.1)
|---------------------------------------------------------------------|
|---------------------------------------------------------------------|
|-7-------7-----------------------------------------------------------|
|-5---7---5---7---5---7---9-------------9-7---------------------------|
|-----5-------5---3---5---7------7-9-10-----10-9-7-10-9-7----9-7------|
|---------------------------------------------------------10-----10-8-|
|                                . .  . . .  . . .  . . .  . . .  . .
|
| Verse
| Riff 5 (8x) (Gtr.2)
|-------------------|--------------------------------------|
|*-----------------*|--------------------------------------|
|-------------------|--------------------------------------|
|-------------------|--------9-7---------------------------|
|*-----------------*|-7-9-10-----10-9-7-10-9-7----9-7------|
|-0-00-0-0-000-000--|--------------------------10-----10-8-|
  . .. . . ... ...    . .  . . .  . . .  . . .  . . .  . .


 Verse Riff 3


 Chorus (2x)

 Riff 2


 Solo 1 (Kai Hansen)

 Solo Riff 1 (3x)
|---------------------------------------------------|
|*-------------------------------------------------*|
|---------------------------------------------------|
|--7/9-----9------7/9-----9------5-----7-7--5-4-----|
|*-5/7-----7------5/7-----7------3--5--5-5------5--*|
|------0-0----0-0-----0-0----0-0----3---------------|
       . .    . .     . .    . .

 (4th Time)
|-----------------------------------------------------|
|-----------------------------------------------------|
|-----------------------------------------------------|
|-7/9-----9------7/9-----9------5-----7--5-4----4-(4)-|
|-5/7-----7------5/7-----7------3--5--5------5--2-(2)-|
|-----0-0----0-0-----0-0----0-0----3------------------|
      . .    . .     . .    . .



 Solo 2 (Kai Hansen)

 Solo Riff 2
|---------------------------------------------------------------|
|---------------------------------------------------------------|
|---------------------------------------------------------------|
|--------9-7-9---4-5-7---4-5--7----------9-7-9---4-5-7--4-5--4--|
|-2------7-5-7---2-3-5---2-3--5---2------7-5-7---2-3-5--2-------|
|-0--0-0--------------------------0--0-0------------------------|
     . .                             . .


|----------------------------------------------------------------|
|----------------------------------------------------------------|
|----------------------------------------------------------------|
|--------9-7-9---4-5-7---4-5--7----------9-7-9---4-5-7---4-5--7--|
|-2------7-5-7---2-3-5---2-3--5---2------7-5-7---2-3-5---2-3--5--|
|-0--0-0--------------------------0--0-0-------------------------|
     . .                             . .



 Interlude
  E5		                      C5
|-------------------------------------------------------------------------|
|-------------------------------------------------------------------------|
|-------------------------------------------------------------------------|
|-------------------9-----------------------------------9-----------------|
|-----10---9h10-----------10-----9h10-----10---9h10-----------12--12-10-9-|
|-0-0----0------0-0---0-0----0-0------8-8----8------8-8---8-8-------------|
  . .    .      . .   . .    . .      . .    .      . .   . .

  E5
|--------------------------------------------------|
|--------------------------------------------------|
|--------------------------------------------------|
|-------------------9------------------------Gtr2--|
|-----10---9h10-----------10-----9h10--2-(2)-slide-|
|-0-0----0------0-0---0-0----0-0-------0-(0)-------|
  . .    .      . .   . .    . .



  Interlude (Gtr.1)
|-------------------------------------------------------------------------|
|-------------------------------------------------------------------------|
|-------------------------------------------------------------------------|
|-------------------9-----------------------------------9-----------------|
|-----10---9h10-----------10-----9h10-----10---9h10-----------12--12-10-9-|
|-0-0----0------0-0---0-0----0-0------8-8----8------8-8---8-8-------------|
| . .    .      . .   . .    . .      . .    .      . .   . .
|
|
|--------------------------------------------------|
|--------------------------------------------------|
|--------------------------------------------------|
|-------------------9------------------------------|
|-----10---9h10-----------10-----9h10--12-------9--|
|-0-0----0------0-0---0-0----0-0-------10--8h10-7--|
| . .    .      . .   . .    . .
|
|
| Interlude (Gtr.2)
|-----------------------------------------------------------------|
|-----------------------------------------------------------------|
|-----------------------------------------------------------------|
|-----------------5-------------------------------5-----4--4------|
|-----7---5h7-----------7-----5h7-3-3-7-3-5h7-3-3---3-3------7-5--|
|-0-0---0-----0-0---0-0---0-0-------------------------------------|
| . .   .     . .   . .   . .     . .   .     . .   . .
|
|
|--------------------------------------------------|
|--------------------------------------------------|
|--------------------------------------------------|
|-----------------5----------------7--5h7-4~-------|
|-----7---5h7-----------7-----5h7------------------|
|-0-0---0-----0-0---0-0---0-0----------------------|
  . .   .     . .   . .   . .



 Verse Riff 6 (2x)
|------------------------------|
|*----------------------------*|
|------------------------------|
|--9-(9)--5-(5)--9-(9)--7------|
|*-7-(7)--3-(3)--7-(7)--5--9--*|
|--------------------------7---|



 Solo 3 (Dirk Schlächter)

 Solo Riff 3 (play interlude 2x)

 Solo Riff 4 (3x)
|-------------------------------------------------------------------------------------|
|*------------------------------------------------------------------------------------|
|-------------------------------------------------------------------------------------|
|------9------9------9------9------7------7------7------7-----------------------------|
|*-----7------7------7------7--5-5-5--5-5-5--5-5-5--5-5-5------5------5------5------5-|
|--0-0----0-0----0-0----0-0--------------------------------3-3-3--3-3-3--3-3-3--3-3-3-|
|  . .    . .    . .    . .    . .    . .    . .    . .    . .    . .    . .    . .
|
|
|------------------------|
|-----------------------*|
|------------------------|
|-----7------7--7-6-7-8--|
|-5-5-5--5-5-5--5-4-5-6-*|
|------------------------|
  . .    . .



 Riff 6 (2x)
  E5                       C5 D5  E5                      C5 D5
|----------------------------------------------------------------|
|*--------------------------------------------------------------*|
|----------------------------------------------------------------|
|------5-5h7-5-4h5p4-------5--7-------5-5h7-5-4h5p4-------5--7---|
|*-7~----------------5-7~--3--5---7~----------------5-7~--3--5--*|
|----------------------------------------------------------------|



 Verse Riff 7 (2x)
|-------------------------------------------------|
|*-----------------------------------------------*|
|-------------------------------------------------|
|--9---12-11---7------9---9---12-11---7------9----|
|*-7---10--9---5---9--7---7---10--9---5---9--7---*|
|------------------7----------------------7-------|



 Riff 7 				                       (Gtr.2 play solo)
|--------------------------------------------------------------------------------|
|--------------------------------------------------------------------------------|
|--------------------------------------------------------------------------------|
|------------7---11--9--------------7-------------4-4h5-4-5-7--4-(4)-------------|
|-2---5--4---5----9--7---2---5--4---5---/9--7---7--------------2-(2)---2-(2)---2-|
|-0---3--2---------------0---3--2-------------7------------------------0-(0)---0-|




  . = palm mute
  ~ = vibrato
  \ = slide down
  / = slide up
  p = pull off
  h = hammer on
(9) = ghost note

  Visit MetalTabs.com for more metal tablature

bottom separator

Contact Us | Privacy Policy | Disclaimer | Legal Notice
Copyright © 2001-2014 MetalTabs.com. All Rights Reserved.