top separator

Home

Forum

What's New

Submit a Tab

FAQ

Links

Contact Us

Link to Us

MetalTabs.com logo

Bands

0-9

A

B

C

D

E

F

G

H

I

J

K

L

M

N

O

P

Q

R

S

T

U

V

W

X

Y

Z

Search

What

Where
 

Bolt Thrower - "Cenotaph" Guitar Tab

Plain Text Version
More Bolt Thrower Tabs

Hits: 11293
Rated: 4.25 out of 5 (8 votes)
Updated: 2001-12-18 14:54:08

 

Important note
This tab is available online because we obtained explicit permission from Bolt Thrower or their label.


#----------------------------------PLEASE NOTE---------------------------------#
#This file is the author's own work and represents their interpretation of the #
#song. You may only use this file for private study, scholarship, or research. #
#Unless specified otherwise, this is NOT an official tab from the band members.#
#------------------------------------------------------------------------------#

  Visit MetalTabs.com for more metal tablature
  
                                    CENOTAPH
                           As recorded by Bolt Thrower
                        (From the 1991 Album WAR MASTER)
Tune guitars down 1 1/2 steps (C#)
Words and Music by Bolt Thrower
Transcribed by Da' Wolf (POTAsprinkles@aol.com)

    Q=165
   4/4
    Gtrs I, II
                                      8x
||-----------------|------------------||
||o----------------|-----------------o||
||-----------------|------------------||
||-----------------|------------------||
||o-8--------------|-----------------o||
||--6--0-0-0-0-0-0-|-0-0-0-0-0-0-0-0--||


||------------------|-----------------|
||o-----------------|-----------------|
||------------------|-----------------|
||------------------|-----------------|
||o-3-------------3-|---------------5-|
||--1-0-0-0-0-0-0-1-|-0-0-0-0-0-0-0-3-|


                               ~        ~~
                                             4x
|-------------------|------------------------||
|-------------------|-----------------------o||
|-------------------|------------------------||
|-------------------|------------------------||
|-(5)s6-------------|-10h11p10-8-10h11p10---o||
|-(3)s4-0-0-0-0-0-0-|------------------------||


    Q=120
    Gtr I
                           ~        ~~
                                        4x
||-------------|------------------------||
||o------------|-----------------------o||
||-------------|------------------------||
||--2----------|------------------------||
||o-2----------|-10h=11p10p8-10h11p10--o||
||--0----------|------------------------||
|
|   Gtr II
|      ~~~~~~~~~~~~~~
|                                       4x
||-------------|------------------------||
||o------------|-----------------------o||
||-------------|------------------------||
||--2--8--9----|-(9)--------------------||
||o-2----------|-----------------------o||
||--0----------|------------------------||


    Gtrs I, II
          ~               ~        ~~
                                       4x
||-------------|-----------------------||
||o------------|----------------------o||
||-------------|-----------------------||
||--2--8--9----|-----------------------||
||o-2----------|-10h11p10-8-10h11p10--o||
||--0----------|-----------------------||


    Q=165
                                                                        8x
||----------------------------------|-----------------------------------||
||o---------------------------------|----------------------------------o||
||----------------------------------|-----------------------------------||
||----------------------------------|-----------------------------------||
||o---------------------------------|----------------------------------o||
||--0-0-0-0-0-0-6-6-4-4-0-0-0-0-0-0-|-4-4-4-4-3-3-3-3-0-0-3-3-3-3-3-3---||


    Q=120
    Gtr I
              ~~~~~~~~~~~~~~~~~~~~
                                     4x
||----------------|------------------||
||o---------------|-----------------o||
||----------------|------------------||
||--2---13-9------|-11---10--7-10----||
||o-2--------12---|-----------------o||
||--0-------------|------------------||
|
|   Gtr II
|                                    4x
||----------------|------------------||
||o---------------|-----------------o||
||----------------|------------------||
||--2-------------|-(2)--------------||
||o-2-------------|-(2)-------------o||
||--0-------------|-(0)--------------||


    Gtrs I, II
                          ~
                               4x
||--------------|--------------||--------|
||o-------------|-------------o||--------|
||--------------|--------------||--------|
||------3-------|--------------||--------|
||o-2---1-6-2---|-6--5--2-5---o||-2------|
||--0-----4-0---|-4--3--0-3----||-0------|


    Q=165
    Gtrs I, II
                                                                        4x
||----------------------------------|-----------------------------------||
||o---------------------------------|----------------------------------o||
||----------------------------------|-----------------------------------||
||----------------------------------|-----------------------------------||
||o---------------------------------|----------------------------------o||
||--0-0-0-0-0-0-4-4-1-1-1-1-1-1-4-4-|-3-3-3-3-3-3-1-1-3-3-1-1-3-3-4-4---||


    Q=165
                                                                        4x
||----------------------------------|-----------------------------------||
||o---------------------------------|----------------------------------o||
||----------------------------------|-----------------------------------||
||----------------------------------|-----------------------------------||
||o---------------------------------|----------------------------------o||
||--0-0-0-0-0-0-6-6-4-4-0-0-0-0-0-0-|-4-4-4-4-3-3-3-3-0-0-3-3-3-3-3-3---||


                                                                        4x
||----------------------------------|-----------------------------------||
||o---------------------------------|----------------------------------o||
||----------------------------------|-----------------------------------||
||----------------------------------|-----------------------------------||
||o---------------------------------|----------------------------------o||
||--0-0-0-0-0-0-4-4-1-1-1-1-1-1-4-4-|-3-3-3-3-3-3-1-1-3-3-1-1-3-3-4-4---||


    Q=165
                                                                        4x
||----------------------------------|-----------------------------------||
||o---------------------------------|----------------------------------o||
||----------------------------------|-----------------------------------||
||----------------------------------|-----------------------------------||
||o---------------------------------|----------------------------------o||
||--0-0-0-0-0-0-6-6-4-4-0-0-0-0-0-0-|-4-4-4-4-3-3-3-3-0-0-3-3-3-3-3-3---||


    Q=120
    Gtr I
                           ~        ~~
                                        4x
||-------------|------------------------||
||o------------|-----------------------o||
||-------------|------------------------||
||--2----------|------------------------||
||o-2----------|-10h=11p10p8-10h11p10--o||
||--0----------|------------------------||
|
|   Gtr II
|      ~~~~~~~~~~~~~~
|                                       4x
||-------------|------------------------||
||o------------|-----------------------o||
||-------------|------------------------||
||--2--8--9----|-(9)--------------------||
||o-2----------|-----------------------o||
||--0----------|------------------------||


    Q=165
                                              ~
                                                  8x
||------------------------------|-----------------||
||o-----------------------------|----------------o||
||------------------------------|-----------------||
||------------------------------|-----------------||
||o-------------8s9-------------|-5-6-5-2-5-6-5--o||
||--0-0-0-0-0-0-6s7-0-0-0-0-0-0-|-3-4-3-0-3-4-3---||


                                   7x
||---------------------------------||-------------------------------*|
||o-------------------------------o||-------------------------------*|
||---------------------------------||-------------------------------*|
||---------------------------------||-------------------------------*|
||o-8-----------------------------o||-8-----------------------------*|
||--6-0-0-0-0-0-0-0-0-0-0-0-0-0-0--||-6-0-0-0-0-0-0-0-0-0-0-0-0-0-0-*|

  Visit MetalTabs.com for more metal tablature

bottom separator

Contact Us | Privacy Policy | Disclaimer | Legal Notice
Copyright © 2001-2014 MetalTabs.com. All Rights Reserved.