top separator

Home

Forum

What's New

Submit a Tab

FAQ

Links

Contact Us

Link to Us

MetalTabs.com logo

Bands

0-9

A

B

C

D

E

F

G

H

I

J

K

L

M

N

O

P

Q

R

S

T

U

V

W

X

Y

Z

Search

What

Where
 

Immortal - "Tragedies blows at horizon" Guitar Tab

Plain Text Version
More Immortal Tabs

Hits: 5456
Rated: 3.00 out of 5 (4 votes)
Updated: 2001-12-17 15:39:36

 

Important note
We did our best to reach Immortal and ask for their permission to publish this tab. Unfortunately they did not respond to our requests or we could not find a way to contact them. This tab is available online until Immortal tells us to take it down.


#----------------------------------PLEASE NOTE---------------------------------#
#This file is the author's own work and represents their interpretation of the #
#song. You may only use this file for private study, scholarship, or research. #
#Unless specified otherwise, this is NOT an official tab from the band members.#
#------------------------------------------------------------------------------#

  Visit MetalTabs.com for more metal tablature
  
Taken with permission from www.immortal.nu

IMMORTAL "TRAGEDIES BLOWS AT HORIZON" (1/22/01)
. = palm mute (also palm mute where else you feel necessary)
\ = slide down
a.h. = artificial harmonic


RIFF A: (Es = fast triplets)
|----------------------------------------------------------------------
|----------------------------------------------------------------------
|-----------------------------5---3-------------------------------5----
|-2-----2------2------2-------5---3--2-----2-------2------2-------5--5-
|-2-----2------2------2-------3---1--2-----2-------2------2-------3--5-
|--0-0-0--0-0-0--0-0-0--0-0-0---------0-0-0--0-0-0---0-0-0--0-0-0----3-


-------------------------------------------------------------------------|
-------------------------------------------------------------------------|
-----------------------------5----------------------------------5--------|
-2-----2-------2-----2-------5--3--2-----2------2-------2-------5--5-----|
-2-----2-------2-----2-------3--3--2-----2------2-------2-------3--555777|
--0-0-0--0-0-0--0-0-0--0-0-0----1---0-0-0--0-0-0--0-0-0---0-0-0----333555|

   RIFF B (2x) (had to make something up that sounds kinda close!)
|---------------------------------------------------------------------------|
|---------------------------------------------------------------------------|
|-----------------------------------------------------------------------ah--|
|---6h7p6----4h5p4----2h3p2--3p2--2-------6h7p6----4h5p4----2h3p2--3p2--2---|
|--7-----7--5-----5--3-----3----3---3p2--7-----7--5-----5--3-----3----3-----|
|-7--------5--------3-------------------7--------5--------3-----------------|

RIFF A with lyrics:
A black day dawn at horizon where winter hearts out battlefields
the ultimate frostage desire snowflurry drifts these plains
RIFF B (2x)
RIFF A with lyrics:
Since the blast of primaries we've conquered against the storm
Throning with will/and the sound of battle never ends...

RIFF C 2x (chords are picked fast and as many times as you can)
  |----------------------------------------------------------------------
  |----------------------------------------------------------------------
  |----------------------------------------------------------------------
  |-9-4-9-5-9-4-2----3-2----9-4-9-5-9-4-10101010-9-4-9-5-9-4-2-----3-2---
  |-7-2-7-3-7-2--5-3-----5--7-2-7-3-7-2-8-8-8-8--7-2-7-3-7-2---3-5-----5-
  |----------------------------------------------------------------------

                                  -----------------------|
                                  -----------------------|
                                  -----------------------|
                                  -9-4-9-5-9-5-10101010--|
                                  -7-2-7-3-7-3-8-8-8-8---|
                                  -----------------------|

   RIFF D
  |-----------------------------------------------------------|
  |-----------------------------------------------------------|
  |-----------------------------------------------------------|
  |----999-----999------------------999-----999---------------|
  |222-777-222-777-5-5-5-7-7-7--222-777-222-777-5-5-5-3-3-2-2-|
  |000-----000-----3-3-3-5-5-5-0000-----000-----3-3-3-3-3-2-2-|

Tragedies blows at horizon : we ride as one
                             our battle rages on...
RIFF C 2x
RIFF D
Tragedies blows at horizon : we die as one
                             our battle rages on...

 RIFF E 2x
|---------------------------------------------------------------------------
|---------------------------------------------------------------------------
|---------------------------------------------------------------------------
|-2-2--2--2---9-9---9---9---12-12-----12-----12-----10-10---10---10-12-10-9-
|-2--22-22-22-7--77--77--77-10---1010---1010---1010-8----88---88----------7-
|-0-----------0-------------0-----------------------0-----------------------

----------------------------------------------------------------|
----------------------------------------------------------------|
-----------------------------7---------7--------5---------5-----|
-2-2--2--2---9-9---9---9---7---7---7-----7----5---5---5-----5---|
-2--22-22-22-7--77--77--77-5-----5--55-----5--3-----3--33-----3-|
-0-----------0-------------0------------------0-----------------|


RIFF F
  (clean) 2 1/2x then
|------------------------------------------------------------------------
|------------------------------------------------------------------------
|0-----------------------0-----------------------2-----------------------
|2-2--2--2--2--2--2--2---2-2--2--2--2--2--2--2---3-3--3--3--3--3--3--3---
|2--2--2--2--2--2--2--2--2--2--2--2--2--2--2--2--3--3--3--3--3--3--3--3--
|0---0--0--0--0--0--0--0-0---0--0--0--0--0--0--0-1---1--1--1--1--1--1--1-

-----------0--0--0--0----||--------------------------------------------
------------0--0--0--0--*||--------------------------------------------
2------------2--2--2--2--||--------------------------------------------
3-3--3--3----------------||-5-5--5--5---3-3--3--3----------------------
3--3--3--3--------------*||-5--5--5--5--3--3--3--3---------------------
1---1--1--1--------------||-3---3--3--3-1---1--1--1--------------------

   HEAVY
e |----------------------------------------------------------------|
B |----------------------------------------------------------------|
G |----------------------------------------------------------------|
D |-2----3-------2----3-----7-777-6-666--2----3------2---5-555-3-33|
A |-2----3----3~-2----3-----7-777-6-666--2----3--3~p02---5-555-3-33|
E |-0----1-------0----1-----5-555-4-444--0----1------0---3-333-1-11|
~ = wide vibrato (w/ a.h.)

RIFF A
Thundering coloums of fire/majestic against the breeze
gleaming my seepter at hand/the wind altogether silent
RIFF B 2x
RIFF A
Frozen of heart/awaken from a time and risen
by the dying evening breeze/the sound of battle never ends...

RIFF G 2x
e |----------------------------------------------------|
B |----------------------------------------------------|
G |----------------------------------------------------|
D |-9-10-9-97-9-10-------------9-10-95-9-10------------|
A |-7-8--7-75-7-8--7h8p7\5h7p5-7-8--75-7-8--7h8p7-7\5--|
E |----------------------------------------------------|


RIFF H
e |------------------------------------------------------------------
B |------------------------------------------------------------------
G |------------------------------------------------------------------
D |9--9--9--9--9-10-9-7-9-7---7-----9--9--9--9--9-10-9-7-9-7---7---ah
A |7--7--7--7---------------10-10-9-7--7--7--7---------------10-10-9-
E |-00-00-00-00----------------------00-00-00-00---------------------

e ---------------------------------------------------------------|
B ---------------------------------------------------------------|
G ---------------------------------------------------------------|
D -9--9--9--9--9-10-9-7-9-7---7-----9--9--9--9-------------------|
A -7--7--7--7---------------10-10-9-7--7--7--7---777-555-333-222-|
E --00-00-00-00----------------------00-00-00-00-----------------|

RIFF G 2x
RIFF H 2x
RIFF C 2x
RIFF D: Tragedies blows at horizon : we ride as one
                                     our battle rages on...
RIFF C
RIFF D: Tragedies blows at horizon : we die as one
                                     our battle rages on...
RIFF E 2x

   BREAK A `=strum chord freely (2x)
e |-`----`---`0`----0----0--0--0--0---|
B |-`----`----0-----0-----0--0--0--0--|
G |-0----`----2-----2------2--2--2--2-|
D |-2----2----3-----3-----------------|
A |-2----2----3-----3-----------------|
E |-0----0----1-----1-----------------|

  (clean) 2 1/2x then
|------------------------------------------------------------------------
|------------------------------------------------------------------------
|0-----------------------0-----------------------2-----------------------
|2-2--2--2--2--2--2--2---2-2--2--2--2--2--2--2---3-3--3--3--3--3--3--3---
|2--2--2--2--2--2--2--2--2--2--2--2--2--2--2--2--3--3--3--3--3--3--3--3--
|0---0--0--0--0--0--0--0-0---0--0--0--0--0--0--0-1---1--1--1--1--1--1--1-

                            Ending ('ah')
-----------0--0--0--0----||--------------------------------------------
------------0--0--0--0--*||--------------------------------------------
2------------2--2--2--2--||--------------------------------------------
3-3--3--3----------------||-5-5--5--5---3-3--3--3----------------------
3--3--3--3--------------*||-5--5--5--5--3--3--3--3---------------------
1---1--1--1--------------||-3---3--3--3-1---1--1--1--------------------

   HEAVY                                                     'ya' the end
|----------------------------------------------------------------|
|----------------------------------------------------------------|
|----------------------------------------------------------------|
|-2----3---a.h-2----3-----7-777-6-666--2----3-a.h--2---5-555-3-33|
|-2----3----3~-2----3-----7-777-6-666--2----3--3~p02---5-555-3-33|
|-0----1-------0----1-----5-555-4-444--0----1------0---3-333-1-11|

Track 3 from At The Heart Of Winter (Osmose '99)
transcribed : parisc97@erols.com, Nakhtal Frost  (steinzo@hotmail.com)

  Visit MetalTabs.com for more metal tablature

bottom separator

Contact Us | Privacy Policy | Disclaimer | Legal Notice
Copyright © 2001-2014 MetalTabs.com. All Rights Reserved.