top separator

Home

Forum

What's New

Submit a Tab

FAQ

Links

Contact Us

Link to Us

MuSpy.com

MetalTabs.com logo

Bands

0-9

A

B

C

D

E

F

G

H

I

J

K

L

M

N

O

P

Q

R

S

T

U

V

W

X

Y

Z

Search

What

Where
 

Immortal - "Withstand the fall of time" Guitar Tab

Plain Text Version
More Immortal Tabs

Hits: 5601
Rated: 2.75 out of 5 (4 votes)
Updated: 2001-12-17 15:37:17

 

Important note
We did our best to reach Immortal and ask for their permission to publish this tab. Unfortunately they did not respond to our requests or we could not find a way to contact them. This tab is available online until Immortal tells us to take it down.


#----------------------------------PLEASE NOTE---------------------------------#
#This file is the author's own work and represents their interpretation of the #
#song. You may only use this file for private study, scholarship, or research. #
#Unless specified otherwise, this is NOT an official tab from the band members.#
#------------------------------------------------------------------------------#

  Visit MetalTabs.com for more metal tablature
  
Taken with permission from www.immortal.nu

IMMORTAL "WITHSTAND THE FALL OF TIME"

" = tremolo picking (pick many times fast) (in Riff G play E stuff as in the
                                             beginning of that riff)
Palm Mute where necessary (suggest to p.m. open low E notes most of the time)

     RIFF a1                                                 a.h.
E |------------------------------------------------------------
B |------------------------------------------------------------
G |-9----------------------------9-----------------------------
D |-9----------------------------9-----------------------------
A |-7---7771010101099999h10p977557-7771010101099991212101099\7-
E |------------------------------------------------------------

   RIFF a2
e |-----------------------------------------------------------------------
B |-----------------------------------------------------------------------
G |-----------------------------------------------------------------------
D |-9-----9-----9-10"-9---9---9------------9---9---9-10"-9---9---9--------
A |-7-----7-----7-8"--7---7---7-8-5-8-5-85-7---7---7-8"--7---7---7-777555-
E |---000---000--------000-000--------------000-000-------000-000---------
      ---   ---                                      9
REPEAT RIFF a1, a2, a2 with a new ending = A|7---5---7---slow dive
                                                     0
    RIFF B                                     a.h.
e |--------------------------------------------^----------------------------
B |-------------------------------------------------------------------------
G |-------------------------------------------------------------------------
D |-------------------------------------------------------------------------
A |-77777777999999999101010101010101212121212129~~~-7777777999999991010101010
E |-------------------------------------------------------------------------
                    RIFF C (play 8 times, 4 with lyrics)
e ---------------|-----------------------------------------------------|
B ---------------|-----------------------------------------------------|
G ---------------|-----------------------------------------------------|
D ---------------|----------------------------------------------------|
A 12121212129-10-|--777755558888--555577774444-------------------------|
E ---------------|00------------00-------------------------------------|
Darker and darker/ skylines of red grew my horizon
on the edges of my vision/ a giant grimfaced realm...
RIFF B
RIFF C 4x with lyrics:
Flaming suns crested the horizon/ shadows born a cloudless day
believers of the rise and set of the moon/ darkened twilight into night...ahh!
RIFF B

    RIFF D (play 3x, 2 last times with lyrics)
e |-----------------------------------------------------------
B |-----------------------------------------------------------
G |-----------------------------------------------------------
D |-2-----------------0---------3---------2-----------------0-
A |-2-----------------0---------3---------2-----------------0-
E |-0-0-0-0-0-0-0-0-0---0-0-0-0-1-0-0-0-0-0-0-0-0-0-0-0-0-0---

e ---------------|  Hardening claws of cold tell me ... we are closer to colder times
B ---------------|  through the days of bitterness ... still the thundra lay untouched
G ---------------|
D ---------3-3-3-|
A ---------3-3-3-|
E -0-0-0-0-1-1-1-|

   RIFF E (3x with end1,   ending 1   last time with second ending)
e |----------------------=============---==end=2=====-|
B |----------------------|---------------|------------|
G |---------------------------------------------------|
D |-------------0-------------------------------------|
A |-7-777999101010-777777-8-7-5-7-5-4-----777-8-7-5-2-|
E |-0--------------0----------------------0---6-5-3-0-|
Palm Mute ending 1

RIFF D with lyrics:
In the final of that day ... and all centuries after
in eternity and time the same ... still the thundra lay untouched.

    RIFF E VARIATION play 2x
e |----------------------------------------------------------------|
B |----------------------------------------------------------------|
G |----------------------------------------------------------------|
D |-------------0----------------------------------0-------99999---|
A |-77777999101010-777777-8-7-5-7-5-4-777777999101010-7777777777---|
E |-0--------------0------------------0---------------0------------|

   RIFF F 4x
e |----------------------------------------------------------------------|
B |----------------------------------------------------------------------|
G |----------------------------------------------------------------------|
D |-99999-9-10-9-7-99999-9-10-7-1010101010-10-12-10-9-1010101010-10-12-9-|
A |-0--------------------------------------------------------------------|
E |----------------------------------------------------------------------|

    BREAK RIFF play 2x
e |-------------------------------------------------------------------
B |-------------------------------------------------------------------
G |-------------------------------------------------------------------
D |-------------------------------------------------------------------
A |-101010-1010107--9---101010-101010-9~~121212-121212-12-10---121212-
E |-------0------0-----0------0----------------0-------------0--------
                                     BREAK ENDS
e ----------------------------|------------a.h.--------------|
B ----------------------------|------------^-----------------|
G ----------------------------|------------------------------|
D ----------------------------|-9--7--5--4-2---9--7--5-5-4-2-|
A -121212-12-13-12-10-12-10-9-|-7--5--3--2-----7--5--3-3-2-0-|
E ----------------------------|------------------------------|

RIFF B
RIFF C with lyrics: (4x)
Blacker and blacker / blinded by shades from centuries behind
shadows of dark that used to be / under heavy winters reign ...
RIFF B
RIFF C (8x): (4 with lyrics)
The blackening sky never ends / as we stand the fall of time
yet winds of coold will always blow / uhhh without tomooorow...

   RIFF G
e |------------------------5-------2------------5------------------5------2------|
B |-------------------------6-------3------------6------------------6------3-----|
G |--9-------------------7---7--5----4---9----7---7--5-555-4-9----7--7--5---4----|
D |--9-------------------7----7-5-----5--9----7----7-5-555-4-9----7---7-5----5---|
A |--7-77-77-77-77-77-77-5------3--------7-7"-5------3-333-2-7-7"-5-----3--------|
E |--0-00-00-00-00-00-00-----------------0-0"----------------0-0"--------------0-|

    RIFF H (4x)
e |-------------------------|
B |-------------------------|
G |-------------------------|
D |-------------------9999~-|
A |--7997-97-75--7997-9999~-|
E |-7----7--7--57----77777~-|

RIFF G
RIFF H 6x

      RIFF I (E pedal (sorry I didn't put the Ohs on E, just play them...) 2x
e |--------------------------------------------------------------------------|
B |--------------------------------------------------------------------------|
G |--------------------------------------------------------------------------|
D |-----------------------------------------------------77777---555555-------|
A |-10-9-7-10-9-7-9-7-5-9-7-5-10-9-7-10-9-7-9-7-5-9-7-5-5555555-33333333-----|
E |0-------------------------------------------------------------------------|
(...between the each note, and then kinda triple fill during chords)

RIFF D (3x, twice with lyrics)
RIFF E (1112)
RIFF D (2x)
RIFF E VARIATION
RIFF F (fade out)

THE END

TRACK I from At The Heart Of Winter (Osmose '99)
comments / questions / correction to the writer/transcribed : parisc97@erols.com

  Visit MetalTabs.com for more metal tablature

bottom separator

Contact Us | Privacy Policy | Disclaimer | Legal Notice
Copyright © 2001-2014 MetalTabs.com. All Rights Reserved.