top separator

Home

Forum

What's New

Submit a Tab

FAQ

Links

Contact Us

Link to Us

MuSpy.com

MetalTabs.com logo

Bands

0-9

A

B

C

D

E

F

G

H

I

J

K

L

M

N

O

P

Q

R

S

T

U

V

W

X

Y

Z

Search

What

Where
 

Immortal - "Mountains of might" Guitar Tab

Plain Text Version
More Immortal Tabs

Hits: 6123
Rated: 2.80 out of 5 (10 votes)
Updated: 2001-12-17 15:33:45

 

Important note
We did our best to reach Immortal and ask for their permission to publish this tab. Unfortunately they did not respond to our requests or we could not find a way to contact them. This tab is available online until Immortal tells us to take it down.


#----------------------------------PLEASE NOTE---------------------------------#
#This file is the author's own work and represents their interpretation of the #
#song. You may only use this file for private study, scholarship, or research. #
#Unless specified otherwise, this is NOT an official tab from the band members.#
#------------------------------------------------------------------------------#

  Visit MetalTabs.com for more metal tablature
  
Taken with permission from www.immortal.nu

	Charge de: Au coeur du Black Metal
	http://i-france.com/kabal

  IMMORTAL: Mountains of Might

   Intro
E||------------------------|------------------------|------------------------|
B||------------------------|------------------------|------------------------|
G||------------------------|------------------------|------------------------|
D||------------------------|------------------------|------------------------|
A||--2-----2---------2-----|--5-----5----3-----3----|--2-----2---------2-----|
E||-----0---------0-----0--|-----5----------3-------|-----0---------0-----0--|



-----------------------------------|------------------------|
-----------------------------------|------------------------|
-----------------------------------|------------------------|
-----------------------------------|--9-----9---------9-----|
--5-----5----7-7-7-7-7--7-7-7-7-7--|-----7---------7-----7--|
-----5-----------------------------|------------------------|



------------------------|------------------------|--------------------------|
------------------------|------------------------|--------------------------|
------------------------|------------------------|--------------------------|
-----7----------5----4--|--9-----9---------9-----|-----7--------5----4---5--|
--5-------5--3----------|-----7---------7-----7--|--5-----5--3-----3--------|
------------------------|------------------------|--------------------------|


Riff A
----------------------|---------------------|----------------------|
----------------------|---------------------|----------------------|
----------------------|---------------------|----------------------|
----------------------|---------------------|----------------------|
--2----7----------5---|--8--------------5-2-|--2----7----------7-5-|
--0-----------------5-|---------------------|--0-------------------|



--------------------|----------------------|--------------------|
--------------------|----------------------|--------------------|
--------------------|----------------------|--------------------|
--------------------|----------------------|-----------9--------|
--7--------5--------|--2----7----------5---|--8-----------------|
--8-----------------|--0-----------------5-|--------------------|



--------------------|----------------------|
--------------------|----------------------|
--------------------|----------------------|
--------------------|-------9----7----5----|
--2--------7--------|--7-------------------|
--0-----------------|--8-------------------|


Riff B (accompagnement)
--------------------------|----------------------------|
--------------------------|----------------------------|
--------------------------|----------------------------|
--------------------------|----------------------------|
------5-7---5-8---5-8---5-|------5-7---5-8---5-8-5-3-1-|
--0-----------------------|--0-------------------------|

Riff C (pont)
-------------------------|------------------------------------|
-------------------------|------------------------------------|
-------------------------|------------------------------------|
-------------------------|------------------------------------|
-----7--9-------9--10----|-----10--12----12--10--9--10--9--7--|
--0----------0-----------|--0---------------------------------|


Riff D (refrain)
---------------------|---------------------||
---------------------|---------------------||
---------------------|---------------------||
-------9--------7----|-------7----5--------||
-------7--------9----|-------5----7--------||
--0------------------|--0------------------||

  Visit MetalTabs.com for more metal tablature

bottom separator

Contact Us | Privacy Policy | Disclaimer | Legal Notice
Copyright © 2001-2014 MetalTabs.com. All Rights Reserved.