top separator

Home

Forum

What's New

Submit a Tab

FAQ

Links

Contact Us

Link to Us

MuSpy.com

MetalTabs.com logo

Bands

0-9

A

B

C

D

E

F

G

H

I

J

K

L

M

N

O

P

Q

R

S

T

U

V

W

X

Y

Z

Search

What

Where
 

Immortal - "Battlefields" Guitar Tab

Plain Text Version
More Immortal Tabs

Hits: 3950
Rated: 3.50 out of 5 (2 votes)
Updated: 2001-12-17 15:32:28

 

Important note
We did our best to reach Immortal and ask for their permission to publish this tab. Unfortunately they did not respond to our requests or we could not find a way to contact them. This tab is available online until Immortal tells us to take it down.


#----------------------------------PLEASE NOTE---------------------------------#
#This file is the author's own work and represents their interpretation of the #
#song. You may only use this file for private study, scholarship, or research. #
#Unless specified otherwise, this is NOT an official tab from the band members.#
#------------------------------------------------------------------------------#

  Visit MetalTabs.com for more metal tablature
  
Taken with permission from www.immortal.nu

IMMORTAL-BATTLEFIELDS from the album "Blizzard Beasts"

=>Transcribed by "The Pastor" from somewhere in the dark french woods...


RIFF A :
E|-------------------------------------------------------||
B|-------------------------------------------------------||
G|-------------------------------------------------------||
D|-------------------------------------------------------||
A|-6h77---------2b33----------6b77----------2b33---------||
E|-------------------------------------------------------||


RIFF B :
E|--------------------------------------------------||
B|--------------------------------------------------||
G|--------------------------------------------------||
D|-----999999-----777777-----999999-----77-55-44----||
A|-----777777-----555555-----777777-----55-33-22----||
E|--0----------0----------0----------0--------------||


RIFF C :
E|-----------------------------------------------||(There are sometimes
B|-----------------------------------------------|| modifications at the
end
G|-----------------------------------------------|| of the riff but you can
D|-----------------------------------------------|| easily find it by
yourself)
A|-------5b77-77-77----------7b88-88-88----------||
E|-----------------------------------------------||


RIFF D :
E|-----------------------------------------------------------||
B|-----------------------------------------------------------||
G|-----------------------------------------------------------||
D|-----------------------------------------------------------||
A|-777777-------------555555-----777777-------------555------||
E|--------888-555-888-------------------888-555-888-----777--||


RIFF E :
E|-----------------------------------------------------||
B|-----------------------------------------------------||
G|-----------------------------------------------------||
D|-7---6-----6---6/7---6-----6---6/7---6-----6---------||
A|-5---4-----4---4/5---4-----4---4/5---4-----4---6/7---||
E|---0---0-0---0-----0---0-0---0-----0---0-0---0-4/5---||


RIFF F :
E|--------------------------------------------------------------||
B|--------------------------------------------------------------||
G|--------------------------------------------------------------||(10's
D|--------------------------------------------------------------|| and
A|--77-77-777---88-88--1010-1111-1010-88--66-66-666--55-55-555--|| 11's)
E|--------------------------------------------------------------||


RIFF G (almost the same as the riff E but a little bit different):
E|--------------------------------------------------------------||
B|--------------------------------------------------------------||
G|--------------------------------------------------------------||
D|--------------------------------------------------------------||
A|-5---4-----4---4b5---4-----4---4b5---4-----4---4b5---4--------||
E|---0---0-0---0-----0---0-0---0-----0---0-0---0-----0---0-4b5--||



=>PLAYLIST:
        Riff A x4
        Riff B x1
        Riff A x4
        Riff B x2
        Riff C x8
        Riff D x2
        Riff E x4
        Riff F x2
        Riff G x3
        Riff A x8
        Riff B x4
        Riff C x8
        Riff D x2
        Riff E x2
        Riff F x2
        Fade out on Riff G...



If you have some suggestions or corrections e-mail me: Pastor@wanadoo.fr

  Visit MetalTabs.com for more metal tablature

bottom separator

Contact Us | Privacy Policy | Disclaimer | Legal Notice
Copyright © 2001-2014 MetalTabs.com. All Rights Reserved.