top separator

Home

Forum

What's New

Submit a Tab

FAQ

Links

Contact Us

Link to Us

MetalTabs.com logo

Bands

0-9

A

B

C

D

E

F

G

H

I

J

K

L

M

N

O

P

Q

R

S

T

U

V

W

X

Y

Z

Search

What

Where
 

Immortal - "Blizzard beasts" Guitar Tab

Plain Text Version
More Immortal Tabs

Hits: 4086
Rated: 4.00 out of 5 (2 votes)
Updated: 2001-12-17 15:11:18

 

Important note
We did our best to reach Immortal and ask for their permission to publish this tab. Unfortunately they did not respond to our requests or we could not find a way to contact them. This tab is available online until Immortal tells us to take it down.


#----------------------------------PLEASE NOTE---------------------------------#
#This file is the author's own work and represents their interpretation of the #
#song. You may only use this file for private study, scholarship, or research. #
#Unless specified otherwise, this is NOT an official tab from the band members.#
#------------------------------------------------------------------------------#

  Visit MetalTabs.com for more metal tablature
  
Taken with permission from www.immortal.nu

Immortal: Blizzard Beasts

Auteur  : Kabal
kabal@free.fr
http://www.i-france.com/kabal


E||------------------------------------------|
B||------------------------------------------|
G||*-----------------------------------------|
D||*-----------------4-----------------------|
A||---------3--------2--------3------2-3-2---|
E||---2-2-2-1--2-2-2----2-2-2-1--2-3-------3-|



---------------------------------------||
---------------------------------------||
--------------------------------------*||
-----------------4--------------------*||
--------3--------2--------3------2-3---||
--2-2-2-1--2-2-2----2-2-2-1--2-3-------||



---------------------------------------|
---------------------------------------|
*--------------------------------------|
*--------6--------7-----------------4--|
---------4--------5--------4--------2--|
---4-4-4----4-4-4----4-4-4-4--4-4-4----|



------------------------------------------||--------------------------------|
------------------------------------------||--------------------------------|
-----------------------------------------*||--------------------------------|
--------6--------7--------6--------------*||--------8--7--------8--7-5-7----|
--------4--------5--------4----0-2-4-2-0--||--------6--5--------6--5-3-5----|
--4-4-4----4-4-4----4-4-4----4------------||--0-0-0-------0-0-0-------------|



|---------------------------------------|
|---------------------------------------|
|*--------------------------------------|
|*--------6--------7-----------------4--|
|---------4--------5--------4--------2--|
|---4-4-4----4-4-4----4-4-4-4--4-4-4----|



------------------------------------------||----------------------------------||
------------------------------------------||----------------------------------||
-----------------------------------------*||*--------------------------------*||
--------6--------7--------6--------------*||*--------8--7--------8--7-5-7----*||
--------4--------5--------4----0-2-4-2-0--||---------6--5--------6--5-3-5-----||
--4-4-4----4-4-4----4-4-4----4------------||---0-0-0-------0-0-0--------------||



------------------------------------|------------------------------------|
------------------------------------|------------------------------------|
------------------------------------|------------------------------------|
------------------------------------|------------------------------------|
--7----9-10--------7----9-10--------|--7----9-10--------7----9-10--9--7--|
-----0-------0-0-0----0-------0-0-0-|-----0-------0-0-0----0-------------|


                                         3x
|----------------------------------------||
|----------------------------------------||
|*--------------------------------------*||
|*--5--------6--------5--------6--5--3--*||
|---3--------4--------3--------4--3--1---||
|------3-3-3----3-3-3----3-3-3-----------||



-------------------------------------|-------------------------------------||
-------------------------------------|-------------------------------------||
*------------------------------------|------------------------------------*||
*------------------------------------|------------------------------------*||
---7----9-10--------7----9-10--------|--7----9-10--------7----9-10--9--7---||
------0-------0-0-0----0-------0-0-0-|-----0-------0-0-0----0--------------||


                                        3x
----------------------------------------||
----------------------------------------||
*--------------------------------------*||
*--5--------6--------5--------6--5--3--*||
---3--------4--------3--------4--3--1---||
------3-3-3----3-3-3----3-3-3-----------||



--------------------------------------------------||
--------------------------------------------------||
--------------------------------------------------||
--------------------------------------------------||
------7-7-7-7-----7-7-7-7-----7-7-7-7-----7-7-7-7-||
--0-0---------0-0---------0-0---------0-0---------||

  Visit MetalTabs.com for more metal tablature

bottom separator

Contact Us | Privacy Policy | Disclaimer | Legal Notice
Copyright © 2001-2014 MetalTabs.com. All Rights Reserved.