top separator

Home

Forum

What's New

Submit a Tab

FAQ

Links

Contact Us

Link to Us

MuSpy.com

MetalTabs.com logo

Bands

0-9

A

B

C

D

E

F

G

H

I

J

K

L

M

N

O

P

Q

R

S

T

U

V

W

X

Y

Z

Search

What

Where
 

Immortal - "The sun no longer rises" Guitar Tab

Plain Text Version
More Immortal Tabs

Hits: 11039
Rated: 4.56 out of 5 (9 votes)
Updated: 2001-12-17 15:05:22

 

Important note
We did our best to reach Immortal and ask for their permission to publish this tab. Unfortunately they did not respond to our requests or we could not find a way to contact them. This tab is available online until Immortal tells us to take it down.


#----------------------------------PLEASE NOTE---------------------------------#
#This file is the author's own work and represents their interpretation of the #
#song. You may only use this file for private study, scholarship, or research. #
#Unless specified otherwise, this is NOT an official tab from the band members.#
#------------------------------------------------------------------------------#

  Visit MetalTabs.com for more metal tablature
  
Taken with permission from www.immortal.nu

                        THE SUN NO LONGER RISES
                     From the PURE HOLOCAUST Album
                        by Abbath and Demonaz (IMMORTAL)

Tune Gtr to F (one 1/2 step higher than normal, for the album)

Structure:
RIFF A - 2x (intro) Fast! Let ring E5.
RIFF B - 2x (melodic riff)
RIFF C - 4x (half time) (let all notes ring)
RIFF D - 4x
RIFF C - 4x (with lyrics)
RIFF E - 4x
RIFF D - 4x
RIFF C - 4x (with lyrics)
RIFF E - 4x
RIFF F - 3x
REST
RIFF F - 4x (w/lyrics)
RIFF G - 4x
RIFF F - 4x (w/lyrics)
RIFF A - 2x
RIFF B - 2x (last time sing at the last part)
RIFF A - 1x END (slide off)


   RIFF A (2x)
|-------00----------00----------00----------00-------|
|-------00----------00----------00----------00-------|
|-------00----------00----------00----------00-------|
|----------------------------------------------99999-|
|-22222----3--22222----3--22222----3--22222----77777-|
|-00000----1--00000----1--00000----1--00000----------|
        du          du          du          du

E5 chords are picked furiously fast, and the upstroke comes like you picked it
up accidentally, and doesn't really have to sound.
The open string notes are not really necessary.

  RIFF B (2x) - trem. pick all notes.
|------------------------------------------------------------------------|
|------------------------------------------------------------------------|
|-9--8--9--7--6--7--9--8--9--7--6--7--5--4--5--7--6--7--5--4--5--7--7--7-|
|-6--6--6--4--4--4--6--6--6--4--4--4--2--2--2--4--4--4--2--2--2--4--4--4-|
|-7--7--7--5--5--5--7--7--7--5--5--5--3--3--3--5--5--5--3--3--3--5--5--5-|
|------------------------------------------------------------------------|

  RIFF D 4x                                 RIFF C (verse)
|-----------------------------------------|--------------------------------|
|-----------------------------------------|--------------------------------|
|-----------------------------2-1h2-------|-------------------------2-1h2--|
|---------------------------3-------3-2---|-2---------------------3-------3|
|-222-222-222-222-222-222-3-----------2---|-2-------------------3----------|
|-000-000-000-000-000-000-------------0---|-0------------------------------|
 (quick staccato)

 RIFF E
|----------------------------------------|
|----------------------------------------|
|----------------------------------------|
|-2---3---2--3---2---3---2--3-3-3--3-3-3-|
|-2---3---2--1---2---3---2--1-1-1--1-1-1-|
|-0---1---0------0---1---0---------------|


Riff F "I believe"         RiFF G (after F)
|------------------------|-----------------|
|------------------------|-----------------|
|-4-55-44-55-44-55-44-33-|-----------------|
|-2-33-22-33-22-33-22-11-|-2---------------|
|-2-33-22-33-22-33-22-11-|-2---66666666666-|
|-0-00-00-00-00-00-00-00-|-0-0-44444444444-|

  Visit MetalTabs.com for more metal tablature

bottom separator

Contact Us | Privacy Policy | Disclaimer | Legal Notice
Copyright © 2001-2014 MetalTabs.com. All Rights Reserved.