top separator

Home

Forum

What's New

Submit a Tab

FAQ

Links

Contact Us

Link to Us

MuSpy.com

MetalTabs.com logo

Bands

0-9

A

B

C

D

E

F

G

H

I

J

K

L

M

N

O

P

Q

R

S

T

U

V

W

X

Y

Z

Search

What

Where
 

Immortal - "The darkness that embrace me" Guitar Tab

Plain Text Version
More Immortal Tabs

Hits: 10198
Rated: 2.80 out of 5 (5 votes)
Updated: 2001-12-17 14:55:20

 

Important note
We did our best to reach Immortal and ask for their permission to publish this tab. Unfortunately they did not respond to our requests or we could not find a way to contact them. This tab is available online until Immortal tells us to take it down.


#----------------------------------PLEASE NOTE---------------------------------#
#This file is the author's own work and represents their interpretation of the #
#song. You may only use this file for private study, scholarship, or research. #
#Unless specified otherwise, this is NOT an official tab from the band members.#
#------------------------------------------------------------------------------#

  Visit MetalTabs.com for more metal tablature
  
Taken with permission from www.immortal.nu

Immortal Tablature

"The Darkness That Embraces Me" from DAMNED IN BLACK

Tabbed by:Tyrmord
E-Mail: frostbitten@envy.nu
Website: www.envy.nu/aeternus, www.envy.nu/metaltabs (check out for updates on this tab)

Mail any questions!



Intro
------------------------------------------------------------------------------------------------------------------------------------
------------------------------------------------------------------------------------------------------------------------------------
------------------------------------------------------------------------------------------------------------------------------------
---------------------------------7-7-7-7------------------------------------7-7-8-7----------------------------------7-7-7-7--------
---5-6-5-5--6-5-5--6-5-5--6-5-5--5-5-5-5------5-6-5-5--6-5-5--6-5-5--6-5-5--5-5--------5-6-5-5--6-5-5--6-5-5-6-5-5---5-5-5-5--------
------------------------------------------------------------------------------------------------------------------------------------

First end               Second end
---------------      ---------------
---------------      ---------------
---------------      ---------------
--3--5---------      --3--2---------
--1--3---------      --1--0---------
---------------      ---------------

These are not just played like ring out chords, listen to the soong!


Verse Riff
(this is exact the chrosrds that are played, find out the rythm by listening to the song!)
------------------------------------------------------------------------------------------------------------------------------
------------------------------------------------------------------------------------------------------------------------------
------------------------------------------------------------------------------------------------------------------------------
--8--5----7--4----8--3---4---7---5---7--4---8--5---4--7-----------------------------------------------------------------------
--6--3----5--2----6--5---2---5---3---5--2---6--3---2--5-----------------------------------------------------------------------
------------------------------------------------------------------------------------------------------------------------------

Riff 2
This is the only chord that is played in this riff expect for some stuff made at the end (improvise!)
------------------------------------------------------------------------------------------------------------------------------
------------------------------------------------------------------------------------------------------------------------------
-----------------------------------------------------------------------------------------------------------------------------
---5--5-5-5-5-5----<<SEVEN TIMES, Then:---------------------------------------------------------------------------------------
---3--3-3-3-3-3----<<SEVEN TIMES, Then:-6.......3.......6.......3........------------??????????--------------------------------
-------------------------------------------------------------------------6...........------------------------------------------


Riff 3
I don't know how many times each tone is hit, but its easy if you just listen to the song. They are tremolopicked (but pretty slowly)
------------------------------------------------------------------------------------------------------------------------------
------------------------------------------------------------------------------------------------------------------------------
------------------------------------------------------------------------------------------------------------------------------
-----------------5.............----------6...........--------------------------------------------------------------------------
---6-...........--------------7..........-------------------------------------------------------------------------------------
------------------------------------------------------------------------------------------------------------------------------

At end these two tones tremolpicked
-----------------------
-----------------------
-----------------------
---6......5.......-----
-----------------------
-----------------------


Riff 4

This is not exact put its pretty close, I think.
ALL TONES ARE TREMOLOPICKED. I will write just as normal tones, but remember the tremolopicking!
-----------------------------------------------------------------------------------------------------------------------------------
-----------------------------------------------------------------------------------------------------------------------------------
-----------------------------------------------------------------------------------------------------------------------------------
-----------------------------------------------------------------------------------------------------------------------------------
---6-3-6-3---3---5-----5-3---------6-3-6-3---3---5---5-8-5-------------------------------------------------------------------------
-----------6--------6------6-3-------------6-------6-------6-----------------------------------------------------------------------


Thats all riffs!

There is also a solo which is played over the verse riff ( I can't figure the solo out, sorry!)

If you wanna improvise a solo, you can play the solo in D

HOW THE SONG IS PLAYED:

<Intro>

<Singed over verse riff>
Blackened earth before me
Creeping fog in my way
Lurking through the shadows
Of another day
My hearts the darkened one
My soul on ice
Into the world before me
I stalk the night

<Intro Riff again>

<singed over verse riff>
Blind me moons above me
But still I shall se
In my time of wondering
WInter it will be
I'm getting nearer
The higher moutains wait
It's getting colder
The snow blow in my face

<The Intro riff yet again>

<singed over riff 2>
In our great winters land
Theres seldom sun in sight
In great winters land
Hear clear vocies of ice

<Riff 3 is played between>

<singed over riff 2>
Through the biting wind
At the cold northern mountains
Horizoned in wintery dreams
At the cold northern mountains

<Riff 3 is played between>

<singed over riff 2>
Cover the horizon
But still I shall reach
The unending darkness that embraces me

<Riff 4 is played>

<The first verse is singed again over the verse riff>

Then a there is a solo played over the verse riff, this solo can be played in D.

The song fades out with the solo



...Tabbed 13/10 2000...

  Visit MetalTabs.com for more metal tablature

bottom separator

Contact Us | Privacy Policy | Disclaimer | Legal Notice
Copyright © 2001-2014 MetalTabs.com. All Rights Reserved.