top separator

Home

Forum

What's New

Submit a Tab

FAQ

Links

Contact Us

Link to Us

MetalTabs.com logo

Bands

0-9

A

B

C

D

E

F

G

H

I

J

K

L

M

N

O

P

Q

R

S

T

U

V

W

X

Y

Z

Search

What

Where
 

Einherjer - "Storms of the Elder" Guitar Tab

Plain Text Version
More Einherjer Tabs

Hits: 5563
Rated: 3.62 out of 5 (8 votes)
Updated: 2001-12-17 13:38:02

 

Important note
This tab is available online because we obtained explicit permission from Einherjer or their label.


#----------------------------------PLEASE NOTE---------------------------------#
#This file is the author's own work and represents their interpretation of the #
#song. You may only use this file for private study, scholarship, or research. #
#Unless specified otherwise, this is NOT an official tab from the band members.#
#------------------------------------------------------------------------------#

  Visit MetalTabs.com for more metal tablature
  
Song:      Storms Of The Elder
Artist:    Einherjer (www.einherjer.com)
Album:     Dragons of the North
Tuning:    E
Tabbed by: Qth - quorthon@mailcity.com

Key:
/ \=slide
p=pull off
h=hammer on
~=vibrato
=muted

Need a lot of correction, towards the end i become too lazy to check what i wrote
Email me comment and suggestions!

RIFF 1A
Guitar1			               (12's, picked fast)
|--------------------------------------------------------*---------------------|
|----------12~----------12~-----------------10---------121212-10---------------|
|-9-11-12-9----9-11-12-9-----9-11-12~--11-12---12-11~----------12-11-12-11-9~--|
|------------------------------------------------------------------------------|
|------------------------------------------------------------------------------|
|------------------------------------------------------------------------------|
GuitaR2
|------------------------------------------------------------------------------|
|------------------------------------------------------------------------------|
|------------------------------------------------------------------------------|
|-9-------------9------------9---------7-------7-7-------------7---------------|
|-9-------------9------------9---------7-------7-7-------------7---------------|
|-7-------------7------------7---------5-------5-5-------------5---------------|
  			     	               	       


RIFF 1B
Guitar1			               (12's, picked fast)
|--------------------------------------------------------*---------------------|
|----------12~----------12~-----------------10---------121212-10---------------|
|-9-11-12-9----9-11-12-9-----9-11-12~--11-12---12-11~----------12-11-12-11-9~--|
|------------------------------------------------------------------------------|
|------------------------------------------------------------------------------|
|------------------------------------------------------------------------------|
GuitaR2
|------------------------------------------------------------------------------|
|------------------------------------------------------------------------------|
|------------------------------------------------------------------------------|
|-999~---------999~----------999~------777~------777~-----------777~-----------|
|-999~---------999~----------999~------777~------777~-----------777~-----------|
|-777~---------777~----------777~------555~------555~-----------555~-----------|
  	       	     	               	        

RIFF 2
Guitar1
|------------------------------------------------------------------------------|
|----------12~------------------------------10---------------------------------|
|-9-11-12-9----------------------------11-12---12-11~--------------------------|
|------------------------------------------------------------------------------|
|------------------------------------------------------------------------------|
|------------------------------------------------------------------------------|
Guitar2			               (12's, picked fast)
|------------------------------------------------------------------------------|
|------------------------------------------------------------------------------|
|------------------------------------------------------------------------------|
|------------------------9~---------------------------999-7--------------------|
|---------------7-9-10-7----7-9-10~------------------------10-9-10-9-7~--------|
|------------------------------------------------------------------------------|
                                                     

RIFF 3
|--------|
|--------|
|----9~--|
|----9~--|
|----7~--|
|----*---|

RIFF 4
|------------------------------------------------------------------------------|
|------------------------------------------------------------------------------|
|-7-9~------9\11-11~----11\12-12~-----12\11-11~---12-11-9~---------------------|
|-7-9~------9\11-11~----11\12-12~-----12\11-11~---12-11-9~---------------------|
|-5-7~------7\9--9~------9\10-10~-----10\9---9~---10-9--7~---------------------|
|------------------------------------------------------------------------------|

|------------------------------------------------------------------------------|
|------------------------------------------------------------------------------|
|-7-9~------9\11-11~----11\12-12~-----12\14-14~---14-14------------------------|
|-7-9~------9\11-11~----11\12-12~-----12\14-14~---14-14------------------------|
|-5-7~------7\9--9~------9\10-10~-----10\12-12~---12-12------------------------|
|------------------------------------------------------------------------------|

|------------------------------------------------------------------------------|
|-12~---13-12-10~---12-10-8~---10-8-7~----7/8-5~-------------------------------|
|-11~---12-11--9~---11--9-7~----9-7-6~----6/7-4~-------------------------------|
|--9~---10--9--7~----9--7-5~----7-5-4~----4/5-2~-------------------------------|
|------------------------------------------------------------------------------|
|------------------------------------------------------------------------------|


RIFF 5 Guitar 1 & Guitar 2
|--------------------------------------------|
|--------------------------------------------|
|--9-9-9-9-9-9-9-9---10-10-10-10--7-7-7-7----|
|--9-9-9-9-9-9-9-9---10-10-10-10--7-7-7-7----|
|--7-7-7-7-7-7-7-7---8--8--8--8---5-5-5-5----|
|--------------------------------------------|


RIFF 6A
Guitar 2
|--------------------------------------------|
|--------------------------------------------|
|--9-9-9-9-9-9-9-9---10-10-10-10--7-7-7-7----|
|--9-9-9-9-9-9-9-9---10-10-10-10--7-7-7-7----|
|--7-7-7-7-7-7-7-7---8--8--8--8---5-5-5-5----|
|--------------------------------------------|
Guitar 1  (Not Sure 'Bout This)
|--------------------------------------------|
|--------------------------------------------|
|--9-9-9--10-9-9-9---10109-9-9-9--109-109-9--|
|--7-7-7--8--7-7-7---8-8-7-7-7-7--8-7-8-7-7--|
|--------------------------------------------|
|--------------------------------------------|

RIFF 6B
Guitar 2
|--------------------------------------------|
|--------------------------------------------|
|--9-9-9-9-9-9-9-9---10-10-10-10--7-7-7-7----|
|--9-9-9-9-9-9-9-9---10-10-10-10--7-7-7-7----|
|--7-7-7-7-7-7-7-7---8--8--8--8---5-5-5-5----|
|--------------------------------------------|
Guitar 1 (Not Sure 'Bout This)
|--------------------------------------------|
|--------------------------------------------|
|--109-1012-12-12--9-1112-11-1111-1112-14~---|
|--8-7-8-10-10-12--7-9-10-9--9-9--9-10-12~---|
|--------------------------------------------|
|--------------------------------------------|


RIFF 7 (ACOUSTIC)  Not sure!
|------------------------------------------------------------------------------|
|------------------------------------------------------------------------------|
|----9--9-9---------9--9--9~-----------9--9-9------9--9--9~--------------------|
|---9-10--9--------9-10--10~----------9-10--9-----9-10--10~--------------------|
|--7------7~------7-------7~---------7------7~---7-------7~--------------------|
|-0--------------0------------------0-----------0------------------------------|

RIFF 8 (ACOUSTIC)  Not sure!
|------------------------------------------------------------------------------|
|------------------------------------------------------------------------------|
|----9--9-9---9--9-9----9--9-9---9--9-9---9--9-9---9--9-9----9--9-9---9--9-9---|
|---9-10-9---9-10-9----9-10-9---9-10-9---9-10-9---9-10-9----9-10-9---9-10-9----|
|--7--------7---------7--------7--------7--------7---------7--------7----------|
|-0--------0---------0--------0--------0--------0---------0--------0-----------|


RIFF 9 (Acoustic SOLO)
|-----------------------------------------------------------------|
|---------------------------------10-10-1010----------------------|
|-12-1212121212-11-9----999-11-12------------12-11-12-121212-11-9-|
|--------------------9--------------------------------------------|
|-----------------------------------------------------------------|
|-----------------------------------------------------------------|

|---------------------------------------12121212121212121212-12-12-1211--------|
|---------------------------------------------------------------------13-12-10-|
|-12-12-12-12-11-9-11-11-1111-9----9-99~-------------------------------------12|
|-------------------------------12---------------------------------------------|
|------------------------------------------------------------------------------|
|------------------------------------------------------------------------------|

|-----------------------------------------------|
|-----------------------------------------------|
|-9--9-11-12-----11-12-11-9---12-11-12-11-9-9~--|
|-----------------------------------------------|
|-----------------------------------------------|
|-----------------------------------------------|

|------------------------------------------------------------------------------|
|----------------------------------------10-10101010-10-12-------10--12~-------|
|-9999-9-11-11-11111111-11-12-12121212-12-------------------11-12--12----------|
|------------------------------------------------------------------------------|
|------------------------------------------------------------------------------|
|------------------------------------------------------------------------------|

|-12-10--10--------------------------------------------------------------------|
|------13--13-12-13~---13-12-10-12-10---------------10-------------------------|
|------------------------------------12-11~--9-11-12--12-11-9-11-9------11-9---|
|------------------------------------------------------------------12-9--------|
|------------------------------------------------------------------------------|
|------------------------------------------------------------------------------|

|-------------------------------------------------------|
|---------10--------------------------------------------|
|--9-11-12--12-11-9-12-11-9-11-9--9----------------11-9-|
|-------------------------------12-12-11-12-11-9-11-----|
|-------------------------------------------------------|
|-------------------------------------------------------|

|-------------------------------------------------------|
|-------------------------------------------------------|
|-----------------------2-2~--4-4-4-2-2---2-------------|
|-5-55555-4-2--222-4-5-4-------------5---5-5-2-2P0H2~---|
|------------2------------------------------------------|
|-------------------------------------------------------|

|-------------------------------------------------------|
|-------------------------------------------------------|
|-----------------------2-2~--4-4-4-2-2---2-------------|
|-5-55555-4-2--222-4-5-4-------------5---5-5-2-2P0H2~---|
|------------2------------------------------------------|
|-------------------------------------------------------|

|-------------------------------|
|-------------------------------|
|-------------------------------|
|-----7~-------5~----------2~---|
|-----7~-------5~----------2~---|
|-5~-55~---3~-33~--2h3p2p0-0~---|
             

RIFF 10 (distorted)
Guitar 1
|--------------------------------------|
|--------------------------------------|
|----9--9-9---9--9-9---9--9-9---9--9-9-|
|---9-10-9---9-10-9---9-10-9---9-10-9--|
|--7--------7--------7--------7--------|
|-0--------0--------0--------0---------|

Guitar 2
|-------------------------------------|
|-------------------------------------|
|-------------------------------------|
|-222-222-222-222-2-555-555-555-555-5-|
|-222-222-222-222-2-555-555-555-555-5-|
|-000-000-000-000-0-333-333-333-333-3-|
           

RIFF 11 (oVER THERES A KEYB,SOUNDS LIKE RIFF9)
|-------------------------------------|
|-------------------------------------|
|-------------------------------------|
|-222-222-222-222-2-555-555-555-555-5-|
|-222-222-222-222-2-555-555-555-555-5-|
|-000-000-000-000-0-333-333-333-333-3-|
           

RIFF 12 (ENDING)
GUITAR 1
|-------------------------------------|
|-------------------------------------|
|-2-2-2-------------------------------|
|-------5-5-5-4H5P4-2~----------------|
|-------------------------------------|
|-------------------------------------|
GUITAR 2
|-------------------------------------|
|-------------------------------------|
|-7-7-7-5-5-5-------------------------|
|-7-7-7-5-5-5-------2----2-5-4-2------|
|-5-5-5-3-3-3-2H3P2-2----2-5-4-2------|
|-------------------0----0-3-2-0------|


----------------------------------------------------------------------

Song Composition

RIFF 1A (x2)
RIFF 1B (x2)
RIFF 2  (x2)
RIFF 3  (x1)

RIFF 4  (x2)

RIFF 2  (X2)
RIFF 1A (x2)
RIFF 1B (x2) But the Guitar 2 plays  thrills!

RIFF 5  (x2) Guitar 1 & Guitar 2
RIFF 6A (x1)
RIFF 6B (x1)
RIFF 6A (x1)
RIFF 6B (x1)

RIFF 4  (x4)

RIFF 2  (X2)
RIFF 1A (x2)
RIFF 1B (x2) But the Guitar 2 plays  thrills!

RIFF 7  (x1)(ACOUSTIC)
RIFF 8  (x2)(ACOUSTIC)
RIFF 9  (x1)(Acoustic SOLO)

RIFF 10 (x4) (distorted AGAIN!)
RIFF 11 (X4) (THERES A KEYB that SOUNDS LIKE RIFF9 over riff 11)
RIFF 12 (x1)

  Visit MetalTabs.com for more metal tablature

bottom separator

Contact Us | Privacy Policy | Disclaimer | Legal Notice
Copyright © 2001-2014 MetalTabs.com. All Rights Reserved.