top separator

Home

Forum

What's New

Submit a Tab

FAQ

Links

Contact Us

Link to Us

MetalTabs.com logo

Bands

0-9

A

B

C

D

E

F

G

H

I

J

K

L

M

N

O

P

Q

R

S

T

U

V

W

X

Y

Z

Search

What

Where
 

Katatonia - "Instrumental" Guitar Tab

Plain Text Version
More Katatonia Tabs

Hits: 8566
Rated: 4.60 out of 5 (5 votes)
Updated: 2001-11-24 16:18:33

 

Important note
This tab is available online because we obtained explicit permission from Katatonia or their label.


#----------------------------------PLEASE NOTE---------------------------------#
#This file is the author's own work and represents their interpretation of the #
#song. You may only use this file for private study, scholarship, or research. #
#Unless specified otherwise, this is NOT an official tab from the band members.#
#------------------------------------------------------------------------------#

  Visit MetalTabs.com for more metal tablature
  
                         KATATONIA - INSTRUMENTAL
                     From the Album DISCOURAGED ONES
                     Copyright 1998 AVANTGARDE MUSIC
                          Version 1.0 - NOV '01


Transcribed by: HARIS DURAKOVIC (THE FOREVERLORN)


For Questions, Comments, Newest Version, or Corrections contact
HARIS DURAKOVIC: at FOREVERLORN@GMX.DE


Check Out

- DEATH8699: great site with many metal tabs at:
  http://www.death8699.com


- METALTABS: metal tabs (esp. rare ones) at:
  http://www.metaltabs.com


- DEATH WARP, With More Transcriptions On It:
  http://www.sorrowsend.com/DeathWarp/



Notation:
..  - palm mute          /  - slide up to
 \  - slide down to      ~  - vibrato
 h  - hammer on          b  - bend
 p  - pull off            Suffixes for bend
                          ph - pinch harmonic
                           f - full bend    h - half bend
*  - see comment           r - release      t - tap bend
X  - percussion mute       ~ - vibrato bend
@  - slight palm mute     () - ghost note, sustained note



Tune Gtr down to D


--I N S T R U M E N T A L--


Riff A
|---|
|---|
|---|Gtr
|---| I
|-0-|
|---|



Riff B
|-3------3-----3-----3-|
|-0--0-----0-----0-----|
|-5----5-----5-----5---|Gtr
|----------------------| I
|----------------------|
|----------------------|



Riff C
|----0--------0-----0-----0-----0------0--------0-----0-----0-----0---|
|------0--------0-----0-----0-----0------0--------0-----0-----0-----0-|
|-2---------------2-----2-----2-----2---------------2-----2-----2-----|Gtr
|-2------3--------------------------2------3--------------------------| I
|-0------3--------------------------0------3--------------------------|
|--------1---------------------------------1--------------------------|



|----0-------0------0-----0--------0--------0h1--0-|
|------0--------------0-----0---3--3-------------0-|
|-2------5-----2--------2-----2----2-------------2-|Gtr
|-2------5-----3-------------------0-------------2-| I
|-0------3-----3---------------------------------0-|
|--------------1-----------------------------------|



Rhythm under solo
|-------0------0----0--------------------0---------------0-------0-|
|---------1----1/3--3----3---3-------------1-----------0-------0---|
|-----2-----2--2/4--4--4---4---4-------2-----2-------2-------2-----|Gtr
|---2----------2/4--4------------0---2---------2---0-------5-------| I
|-0------------0----0--------------0-------------0-----------------|
|------------------------------------------------------------------|



Solo 1
|-----------------------------------------------------|
|-x-x-15----15----15----15----------------------------|
|-x-x-17bh--17bh--17bh--17bhr--16h17p16-17~--16--14~/-|Gtr
|-----------------------------------------------------| II
|-----------------------------------------------------|
|-----------------------------------------------------|



|----------------------------------------|
|----------------------------------------|
|-17p16p14------------------12-----------|Gtr
|----------17--14\12-----12--------------| II
|--------------------15--------15p14p12~-|
|----------------------------------------|



|----------------------------------------------------------|
|----------------------------------------------------------|
|---------------14\------------12--14--16--16bhr-p14\12h14-|Gtr
|-----14-15-14-------------14------------------------------| II
|-12-------------------12----------------------------------|
|----------------------------------------------------------|



|----------------------------------------------|
|----------------------------------------------|
|-12h14p12~---------------------------12-------|Gtr
|-12h14p12~---12h14p12~-----------14-----------| II
|-------------12h14p12~-------12----------15~\-|
|-------------------------15-------------------|



Solo 2
|-----------15bfr----12--15-12h15p12----12-----|
|-15bfr-p12--------------------------15----15~-|
|----------------------------------------------|Gtr
|----------------------------------------------| II
|----------------------------------------------|
|----------------------------------------------|



   *********
|-12----------------------|
|-----12--13--12bhr-------|
|--------------------12~~-|Gtr
|-------------------------| II
|-------------------------|
|-------------------------|
(* = let 'em ring out)



|-----------------------------------------------------|
|-----------------------------------------------------|
|-----------------------------------------------------|Gtr
|-10p9\7/12~---10p9\7~--/12~----10~---9~--------------| II
|------------------------------------------/10--8--7~-|
|-----------------------------------------------------|



Solo 3
|--------------------------------------------------|
|--------------------------------------------------|
|-8bh~~------------------12----------12------------|Gtr
|--------------10h12p10------12--10-----12bhr-\10~-| II
|--------------------------------------------------|
|--------------------------------------------------|



|-----------------------12-------------|
|-10h12h15--12--13--12------13--13/15~-|
|--------------------------------------|Gtr
|--------------------------------------| II
|--------------------------------------|
|--------------------------------------|

  Visit MetalTabs.com for more metal tablature

bottom separator

Contact Us | Privacy Policy | Disclaimer | Legal Notice
Copyright © 2001-2014 MetalTabs.com. All Rights Reserved.