top separator

Home

Forum

What's New

Submit a Tab

FAQ

Links

Contact Us

Link to Us

MuSpy.com

MetalTabs.com logo

Bands

0-9

A

B

C

D

E

F

G

H

I

J

K

L

M

N

O

P

Q

R

S

T

U

V

W

X

Y

Z

Search

What

Where
 

Bolt Thrower - "...For Victory" Guitar Tab

Plain Text Version
More Bolt Thrower Tabs

Hits: 11730
Rated: 3.90 out of 5 (10 votes)
Updated: 2001-11-24 05:06:40

 

Important note
This tab is available online because we obtained explicit permission from Bolt Thrower or their label.


#----------------------------------PLEASE NOTE---------------------------------#
#This file is the author's own work and represents their interpretation of the #
#song. You may only use this file for private study, scholarship, or research. #
#Unless specified otherwise, this is NOT an official tab from the band members.#
#------------------------------------------------------------------------------#

  Visit MetalTabs.com for more metal tablature
  
Bolt Thrower "For Victory"
For Victory
tabbed by: Drew Schinzel <analogkid82@yahoo.com>

Legend:
-------
p pull off
~ vibrato
\ slide down

C# tuning

 Riff 1.  Guitar 1
|----------------------------------------------------------------------|
|----------------------------------------------------------------------|
|----------------------------------------------------------------------|
|---4-------------------------------5-----------------2----------------|
|---4-------------------------------5-----------------2----------------|
|---2-------------------------------3-----------------0----------------|


          Guitar 2
|----------------------------------------------------------------------|
|----------------------------------------------------------------------|
|----------------------------------------------------------------------|
|-------8--------------8----------------8---9--------------------------|
|---9------10---9~--9------10--9~---9-----------9~----7---10--9---10~--|
|----------------------------------------------------------------------|


 Riff 2 (both guitars)  pick this like a crazy, follow the rhythm.
|----------------------------------------------------------------------|
|----------------------------------------------------------------------|
|----------------------------------------------------------------------|
|----------------------------------------------------------------------|
|----------------------------------------------------------------------|
|--2--3--2--0---2--3--2--0-2--0--2-3--2-3--0--2-3--6--3-6--3--2--3-----|


 riff 3  both guitars
|-----------------------------------|
|-----------------------------------|
|--7\6--6\4-6--5-------5------------|
|--5\4--4\2-4--5-------5---4-4-4----|
|--------------3-------3---4-4-4----|
|-----------------2-2------2-2-2----|

|-----------------------------------|
|-----------------------------------|
|--7\6--6\4-6--5-------2------------|
|--5\4--4\2-4--5-------2---2-2-2----|
|--------------3-------0---2-2-2----|
|-----------------2-2------0-0-0----|


 riff 4 (solo rhythm) pick like crazy again. Each of
 these notes represents like 20. They throw in the odd
 extra note here and there, listen carefully to hear them..
|-----------------------------------------------------|
|-----------------------------------------------------|
|-----------------------------------------------------|
|-----------------------------------------------------|
|-----------------------------------------------------|
|--2------------------------3---------------0---------|


 The Solo !
|-------------------------------------------------------------------|
|-----------------------------------------12--11~-------------------|
|-12p112p9-11~--12p11p9-11--12p11p9-11~--------------12p11p9-11~----|
|-------------------------------------------------------------------|
|-------------------------------------------------------------------|
|-------------------------------------------------------------------|

|------------------------------------------------------------------------|
|--------------------------------------------11---------------12-11------|
|-12p11p9-11~--------------------------11-12----12-11------11------------|
|--------------12p11p9-11~--12--11~---------------------11---------------|
|------------------------------------------------------------------------|
|------------------------------------------------------------------------|

|------------------------------------------------------------------------|
|--15--17~~---15-15\14-14\12-12-12~---------11--------14-12-11-----------|
|-------------------------------------11-12----12-11-----------12-11-----|
|------------------------------------------------------------------------|
|------------------------------------------------------------------------|
|------------------------------------------------------------------------|
                                               p.h.
|------------------------------------------------------------------------------------|
|-----14-12----12-11---------------15-14~---15-<14>~---17--15~--15\14-14-14\12-12-12-|
|--11-------12-------11-11\9-9~------------------------------------------------------|
|------------------------------------------------------------------------------------|
|------------------------------------------------------------------------------------|
|------------------------------------------------------------------------------------|

|--------------------------------------------------19~~-----|
|--15-14~------12--15-14~-------12--17-15-15-17-------------|
|------------11---------------11----------------------------|
|----------11---------------11------------------------------|
|-----------------------------------------------------------|
|-----------------------------------------------------------|


 riff 4 guitar 1
|----------------------------------------------------------------|
|----------------------------------------------------------------|
|----------------------------------------------9-----7--7--------|
|--4--------4---------2--4--5------------------9-----7--7--------|
|--4--------4---------2--4--5------------------7-----5--5--------|
|--2--------2---------0--2--3------------------------------------|

|----------------------------------------------------------------|
|----------------------------------------------------------------|
|----------------------------------------------9-----7--7--------|
|--8-9-8~-----8-9--------8-9-----9-11-9~-------9-----7--7--------|
|-----------9-----9---10------10---------------7-----5--5--------|
|----------------------------------------------------------------|

  Visit MetalTabs.com for more metal tablature

bottom separator

Contact Us | Privacy Policy | Disclaimer | Legal Notice
Copyright © 2001-2014 MetalTabs.com. All Rights Reserved.