top separator

Home

Forum

What's New

Submit a Tab

FAQ

Links

Contact Us

Link to Us

MuSpy.com

MetalTabs.com logo

Bands

0-9

A

B

C

D

E

F

G

H

I

J

K

L

M

N

O

P

Q

R

S

T

U

V

W

X

Y

Z

Search

What

Where
 

Bolt Thrower - "Zeroed" Guitar Tab

Plain Text Version
More Bolt Thrower Tabs

Hits: 8237
Rated: 4.29 out of 5 (7 votes)
Updated: 2001-11-24 05:04:34

 

Important note
This tab is available online because we obtained explicit permission from Bolt Thrower or their label.


#----------------------------------PLEASE NOTE---------------------------------#
#This file is the author's own work and represents their interpretation of the #
#song. You may only use this file for private study, scholarship, or research. #
#Unless specified otherwise, this is NOT an official tab from the band members.#
#------------------------------------------------------------------------------#

  Visit MetalTabs.com for more metal tablature
  
                                 zeroed
                bolt thrower off mercenary-jt83@msn.com

drop d tuning- i'm sure the count is off in some parts
and no palm mutes are noted
but listen to the song and you'll get it



    intro riff                    intro riff gtr2
E------------------------------|--------------------------------|-------
B------------------------------|--------------------------------|-------
G------------------------------|--------------------------------|-------
D---2--0--2--9--8--0--2--3~~~--|--2--0--2--2--3--0--2--3--2--0--|-------
A---2--0--2--9--8--------------|--------------------------------|-------
D---2--0--2--9--8--------------|--------------------------------|-------


    figure1
E---------------------------------|--------------------------------|----
B---------------------------------|--------------------------------|----
G------------------------------1--|--------------------------------|----
D------7--6--0--2--3--2--0--2-----|-----7--6--0--2--3--2--0--5--3--|----
A---7-----------------------------|--7-----------------------------|----
D---------------------------------|--------------------------------|----


    figure2
E-----------------------------------------------------------------------
B-----------------------------------------------------------------------
G-----------------------------------------------------------------------
D-----------------------------------------------------------------------
A-----------------------------------------------------------------------
D---2--2--2--2--2--2--2--2--2--2--2--2--2--3--3--3--3--2--2--2--2--2----



E-----------------------------------------------------------------------
B-----------------------------------------------------------------------
G-----------------------------------------------------------------------
D-----------------------------------------------------------------------
A-----------------------------------------------------------------------
D---2--2--2--2--2--2--2--5--5--5--5--2--2--2--2--2--2--2--2--2--2--2----



E-----------------------------------------------------------------------
B-----------------------------------------------------------------------
G-----------------------------------------------------------------------
D-----------------------------------------------------------------------
A-----------------------------------------------------------------------
D---2--3--3--3--3--2--2--2--2--2--2--2--2--2--2--2--2--5--5--5--5--3----


                 figure3
E------------||-----------------------------------------------|---------
B------------||-----------------------------------------------|---------
G------------||-----------------------------------------------|---------
D------------||-----------------------------------3--2--0--3--|---------
A------------||-----------------------------------3--2--0--3--|---------
D---3--3--3--||--2--2--2--2--2--2--2--0--0--2--3--3--2--0--3--|---------


    figure 4
E------------------------|--------------------------------------|-------
B------------------------|--------------------------------------|-------
G------------------------|--------------------------------------|-------
D---3--2--0--3--3--2--3--|--3--2--0--3--3--2--3--2--0-----------|-------
A---3--2--0--3--3--2--3--|--3--2--0--3--3--2-----------1--5--1--|-------
D---3--2--0--3--3--2--3--|--3--2--0--3--3--2--------------------|-------


    figure5
E---------------------|-------------------------------------------------
B---------------------|-------------------------------------------------
G---------------------|-------------------------------------------------
D---8--3--2--6--3--2--|-------------------------------------------------
A---8--3--2--6--3--2--|-------------------------------------------------
D---8--3--2--6--3--2--|-------------------------------------------------


    gtr.2
E---------------------------------------------------|-------------------
B---------------------------------------------------|-------------------
G---3--3--3--1-----3--1--------------------3--1-----|-------------------
D---------------2--------2--6--6--6--5-----------2--|-------------------
A---------------------------------------7-----------|-------------------
D---------------------------------------------------|-------------------


    solo rythm
E-----------------------------------------------------------------------
B-----------------------------------------------------------------------
G-----------------------------------------------------------------------
D-----------------------------------------------------------------------
A-----------------------------------------------------------------------
D---3--3--3--3--0--0--0--2--2--2--2--2--2--2--2--2--3--3--3--3--6--3----



E-----------------------------------------------------------------------
B-----------------------------------------------------------------------
G-----------------------------------------------------------------------
D-----------------------------------------------------------------------
A-----------------------------------------------------------------------
D---6--2--2--2--2--2--2--2----------------------------------------------

  Visit MetalTabs.com for more metal tablature

bottom separator

Contact Us | Privacy Policy | Disclaimer | Legal Notice
Copyright © 2001-2014 MetalTabs.com. All Rights Reserved.