top separator

Home

Forum

What's New

Submit a Tab

FAQ

Links

Contact Us

Link to Us

MetalTabs.com logo

Bands

0-9

A

B

C

D

E

F

G

H

I

J

K

L

M

N

O

P

Q

R

S

T

U

V

W

X

Y

Z

Search

What

Where
 

Bolt Thrower - "Return from chaos" Guitar Tab

Plain Text Version
More Bolt Thrower Tabs

Hits: 5880
Rated: 3.00 out of 5 (2 votes)
Updated: 2001-11-24 05:04:00

 

Important note
This tab is available online because we obtained explicit permission from Bolt Thrower or their label.


#----------------------------------PLEASE NOTE---------------------------------#
#This file is the author's own work and represents their interpretation of the #
#song. You may only use this file for private study, scholarship, or research. #
#Unless specified otherwise, this is NOT an official tab from the band members.#
#------------------------------------------------------------------------------#

  Visit MetalTabs.com for more metal tablature
  
                            return from chaos
                bolt thrower-off mercenary-jt83@msn.com

            drop d tuning- listen to song to put things in their place



    intro- palm mute all open chords
E---------------------------|--------------------------|----------------
B---------------------------|--------------------------|----------------
G---------------------------|--------------------------|----------------
D---0--0--0--1--0--3--0--4--|--0--0--0--1--0--0--4--3--|----------------
A---0--0--0--1--0--3--0--4--|--0--0--0--1--0--0--4--3--|----------------
D---0--0--0--1--0--3--0--4--|--0--0--0--1--0--0--4--3--|----------------



E-----------------------------------------------------------------------
B-----------------------------------------------------------------------
G---------------------------------------------------------8~~~----------
D---------------0--0--0--1--0--3--0--4--0--0--0--1--0--0----------------
A---------------0--0--0--1--0--3--0--4--0--0--0--1--0--0----------------
D---------------0--0--0--1--0--3--0--4--0--0--0--1--0--0----------------


             verse
E-----------------------------------------------------------------------
B-----------------------------------------------------------------------
G-----------------------------------------------------------------------
D-----------------------------------------------------------------------
A------------------------3--5--3--6--5--8--9--6--3----------------------
D------------0--0--0--0-------------------------------------------------


                                     chorus
E-----------------------------------------------------------------------
B-----------------------------------------------------------------------
G-----------------------------------------------------------------------
D-----------------------------------------------------------------------
A-----------------------------------------------------------------------
D------------------------------------4--4--4--4--4--4--6--6--7--7--7----



E-----------------------------------------------------------------------
B-----------------------------------------------------------------------
G-----------------------------------------------------------------------
D------------------2--0--1--2--0--1-------------------------------------
A------------------2--0--1--2--0--1-------------------------------------
D---7--1--1--1--1--2--0--1--2--0--1-----4--4--4--4--4--4--6--6--7--7----



E-----------------------------------------------------------------------
B-----------------------------------------------------------------------
G-----------------------------------------------------------------------
D-----------------2--0--1--2--0--1--------------------------------------
A-----------------2--0--1--2--0--1--------------------------------------
D---10--10--6--7--2--0--1--2--0--1-----------------0--------------------


    not too sure about this part
E--------------------------------------------------------------|--------
B--------------------------------------------------------------|--------
G--------------------------------------------------------------|--------
D--------------------------3--3--3--3--3--3--3-----------------|--------
A---5\3--3--6--6--5--3-----3--3--3--3--3--3--3--6--6--5--3-----|--------
D-----------------------6--3--3--3--3--3--3--3--------------6--|--------



E-----------------------------------------------------------------------
B-----------------------------------------------------------------------
G-----------------------------------------------------------------------
D-----------------------------------------------------------------------
A-----------------------------------------------------------------------
D---0--0--0--0--0--0--0--0--0--0--0--0--0--0--0--0--6--6--6--6--6--6----



E------------------------------------------|----------------------------
B------------------------------------------|----------------------------
G------------------------------------------|----------------------------
D------------------------------------------|----------------------------
A---------------------6--6--5--3-----------|----------------------------
D---6--6--6--6--6--6--------------6--------|----------------------------


    outro
E-----------------------------------------------------------------------
B-----------------------------------------------------------------------
G--------------------------------2/3\2----------------------------------
D---0--4/5\4--1--0--4/5\4--1--3---------3-----5/6\5--1------------------
A------------------------------------------6----------------------------
D-----------------------------------------------------------------------

  Visit MetalTabs.com for more metal tablature

bottom separator

Contact Us | Privacy Policy | Disclaimer | Legal Notice
Copyright © 2001-2014 MetalTabs.com. All Rights Reserved.