top separator

Home

Forum

What's New

Submit a Tab

FAQ

Links

Contact Us

Link to Us

MetalTabs.com logo

Bands

0-9

A

B

C

D

E

F

G

H

I

J

K

L

M

N

O

P

Q

R

S

T

U

V

W

X

Y

Z

Search

What

Where
 

Bolt Thrower - "Powder burns" Guitar Tab

Plain Text Version
More Bolt Thrower Tabs

Hits: 5017
Rated: 2.75 out of 5 (4 votes)
Updated: 2001-11-24 05:03:35

 

Important note
This tab is available online because we obtained explicit permission from Bolt Thrower or their label.


#----------------------------------PLEASE NOTE---------------------------------#
#This file is the author's own work and represents their interpretation of the #
#song. You may only use this file for private study, scholarship, or research. #
#Unless specified otherwise, this is NOT an official tab from the band members.#
#------------------------------------------------------------------------------#

  Visit MetalTabs.com for more metal tablature
  
                              powder burns
              by bolt thrower -off mercenary-jt83@msn.com
                           standard tuning-listen to song-jt*3@msn.com



       intro
E-----------------------------------------------------------------------
B-----------------------------------------------------------------------
G-----------------------------------------------------------------------
D---8-----------------------------------------------8-------------------
A---8-----------------------------------------------8-------------------
E---6--0--0--0--0--0--0--0--0--0--0--0--0--0--0--0--6--0--0--0--0--0----



E-----------------------------------------------------------------------
B-----------------------------------------------------------------------
G-----------------------------------------------------------------------
D---------------------------------8-------------------------------------
A---------------------------------8-------------------------------------
E---0--0--0--0--0--0--0--0--0--0--6--0--0--0--0--0--0--0--0--0--0--0----


                q  q  q  q  e  e  q  etc., etc.
E-----------------------------------------------------------------------
B-----------------------------------------------------------------------
G-----------------------------------------------------------------------
D---------------8--8--8--8--8--8--8-------------------------------------
A---------------8--8--8--8--8--8--8-------------------------------------
E---0--0--0--0--6--6--6--6--6--6--6-------------------------------------



E-----------------------------------------------------------------------
B-----------------------------------------------------------------------
G-----------------------------------------------------------------------
D-----------------------------------------------------------------------
A-----------------------------------------------------------------------
E-----------------------------------------------------------------------


    main riff- palm mute notes on 5th string
E-----------------------------------------------------------------------
B-----------------------------------------------------------------------
G-----------------------------------------------------------------------
D------7-----7-----8-----7-----5--10--8--7--5-----5--7-----5------------
A---5-----5-----5-----5-----5------------------6--------5---------------
E-----------------------------------------------------------------------


                         chorus
E-----------------------------------------------------------------------
B-----------------------------------------------------------------------
G-----------------------------------------------------------------------
D------------------------2--5--2--5--5--8--7--8--7--2--5--7--8--3-------
A------------------------2--5--2--5--5--8--7--8--7--2--5--7--8--3-------
E------------------------0--3--0--3--3--6--5--6--5--0--3--5--6--1-------


                            Qutro palQ mute whQn necQssary
E-----------------------------------------------------------------------
B-----------------------------------------------------------------------
G-----------------------------------------------------------------------
D---------------------------2--2--2--2--2--2--2--6--5--2--3--2----------
A---------------------------2--2--2--2--2--2--2--6--5--2--3--2----------
E---------------------------0--0--0--0--0--0--0--4--3--0--1--0----------

  Visit MetalTabs.com for more metal tablature

bottom separator

Contact Us | Privacy Policy | Disclaimer | Legal Notice
Copyright © 2001-2014 MetalTabs.com. All Rights Reserved.