top separator

Home

Forum

What's New

Submit a Tab

FAQ

Links

Contact Us

Link to Us

MetalTabs.com logo

Bands

0-9

A

B

C

D

E

F

G

H

I

J

K

L

M

N

O

P

Q

R

S

T

U

V

W

X

Y

Z

Search

What

Where
 

Bolt Thrower - "Mercenary" Guitar Tab

Plain Text Version
More Bolt Thrower Tabs

Hits: 9170
Rated: 3.86 out of 5 (7 votes)
Updated: 2001-11-24 05:03:06

 

Important note
This tab is available online because we obtained explicit permission from Bolt Thrower or their label.


#----------------------------------PLEASE NOTE---------------------------------#
#This file is the author's own work and represents their interpretation of the #
#song. You may only use this file for private study, scholarship, or research. #
#Unless specified otherwise, this is NOT an official tab from the band members.#
#------------------------------------------------------------------------------#

  Visit MetalTabs.com for more metal tablature
  
                                mercenary
                bolt thrower off mercenary jt83@msn.com
                        standard tuning...pretty simple...listen to song


    intro
E--------------------------------|--------------------------------------
B--------------------------------|--------------------------------------
G--------------------------------|--------------------------------------
D---7--6--2/9--8--6--8~~~--3--3--|--------------------------------------
A---7--6--2----------------------|--------------------------------------
E---5--4--0----------------------|--------------------------------------


    figure1
E-----------------------------------------------------------------------
B-----------------------------------------------------------------------
G-----------------------------------------------------------------------
D-----------------------------------------------------------------------
A-----------------------------------------------------------------------
E---0--0--0--0--0--0--0--0--0--0--7--7--6--6--4--4--6--6--6--6--6--6----



E---------------------------------|-------------------------------------
B---------------------------------|-------------------------------------
G---------------------------------|-------------------------------------
D---------------------------------|-------------------------------------
A---------------------------------|-------------------------------------
E---1--1--1--1--1--1--1--1--1--1--|-------------------------------------


    figure 2
E---------------------------------------------------|-------------------
B---------------------------------------------------|-------------------
G---------------------------------------------------|-------------------
D---------------------------------------------------|-------------------
A---------------------------------------------------|-------------------
E---0--0--0--0--1--0--0--4--0--3--0--1--1--3--1--1--|-------------------


    chorus
E---------------------------------------|-------------------------------
B---------------------------------------|-------------------------------
G------2--1--2--1--2-----1--2--1--------|-------------------------------
D---2-----------------3-----------3--2--|-------------------------------
A---------------------------------------|-------------------------------
E---------------------------------------|-------------------------------


    figure3
E-----------------------------------------------------------------------
B-----------------------------------------------------------------------
G-----------------------------------------------------------------------
D---2~~~--2--3--2~~~--6--7--6~~~--2--3--2~~~--0--2--3~~~----------------
A-----------------------------------------------------------------------
E-----------------------------------------------------------------------

  Visit MetalTabs.com for more metal tablature

bottom separator

Contact Us | Privacy Policy | Disclaimer | Legal Notice
Copyright © 2001-2014 MetalTabs.com. All Rights Reserved.