top separator

Home

Forum

What's New

Submit a Tab

FAQ

Links

Contact Us

Link to Us

MuSpy.com

MetalTabs.com logo

Bands

0-9

A

B

C

D

E

F

G

H

I

J

K

L

M

N

O

P

Q

R

S

T

U

V

W

X

Y

Z

Search

What

Where
 

Bolt Thrower - "To the last..." Guitar Tab

Plain Text Version
More Bolt Thrower Tabs

Hits: 4623
Rated: 3.00 out of 5 (1 vote)
Updated: 2001-11-24 05:02:38

 

Important note
This tab is available online because we obtained explicit permission from Bolt Thrower or their label.


#----------------------------------PLEASE NOTE---------------------------------#
#This file is the author's own work and represents their interpretation of the #
#song. You may only use this file for private study, scholarship, or research. #
#Unless specified otherwise, this is NOT an official tab from the band members.#
#------------------------------------------------------------------------------#

  Visit MetalTabs.com for more metal tablature
  
                              to the last
                bolt thrower off mercenary jt83@msn.com
                                    drop d- very simple listen to song



    figure1
E---------------------------------|-------------------------------------
B---------------------------------|-------------------------------------
G---------------------------------|-------------------------------------
D---0--0--4--3--0--3--0--7--0--6--|-------------------------------------
A---0-----------------------------|-------------------------------------
D---0-----------------------------|-------------------------------------


    figure 2
E---------------------------------------|-------------------------------
B---------------------------------------|-------------------------------
G---------------------------------------|-------------------------------
D---------------------------------------|-------------------------------
A---------------------------------------|-------------------------------
D---0--4--3--0--3--0--0--7--6--0--6--0--|-------------------------------



E------------------------------------------|-----------------------|----
B------------------------------------------|-----------------------|----
G------------------------------------------|-----------------------|----
D------------------------------------------|--6--x--6--x--5--x--6--|----
A------------------------------------------|--6--x--6--x--5--x--6--|----
D---0--4--3--0--3--0--0--7--6~~~--0--6~~~--|--6--x--6--x--5--x--6--|----



E-----------------------------------------------------------------------
B-----------------------------------------------------------------------
G-----------------------------------------------------------------------
D---0--7--0--6--0--7--0--6--0--7--0--7--0--6--0--7--0--6--0--6----------
A-----------------------------------------------------------------------
D-----------------------------------------------------------------------

  Visit MetalTabs.com for more metal tablature

bottom separator

Contact Us | Privacy Policy | Disclaimer | Legal Notice
Copyright © 2001-2014 MetalTabs.com. All Rights Reserved.