top separator

Home

Forum

What's New

Submit a Tab

FAQ

Links

Contact Us

Link to Us

MetalTabs.com logo

Bands

0-9

A

B

C

D

E

F

G

H

I

J

K

L

M

N

O

P

Q

R

S

T

U

V

W

X

Y

Z

Search

What

Where
 

Bolt Thrower - "Behind enemy lines" Guitar Tab

Plain Text Version
More Bolt Thrower Tabs

Hits: 7248
Rated: 3.60 out of 5 (5 votes)
Updated: 2001-11-24 05:02:13

 

Important note
This tab is available online because we obtained explicit permission from Bolt Thrower or their label.


#----------------------------------PLEASE NOTE---------------------------------#
#This file is the author's own work and represents their interpretation of the #
#song. You may only use this file for private study, scholarship, or research. #
#Unless specified otherwise, this is NOT an official tab from the band members.#
#------------------------------------------------------------------------------#

  Visit MetalTabs.com for more metal tablature
  
                           behind enemy lines
           bolt thrower  off the album mercenary jt83@msn.com
      drop d- another very easy one
and as always
listen to the song



    intro
E---------------------|-------------------------------------------------
B---------------------|-------------------------------------------------
G---------------------|-------------------------------------------------
D---6--1--0-----------|-------------------------------------------------
A---6--1--0--5--4--2--|-------------------------------------------------
D---6--1--0-----------|-------------------------------------------------


    figure2
E-----------------------------------------------------------------------
B-----------------------------------------------------------------------
G-----------------------------------------------------------------------
D-----------------------------------------------------------------------
A-----------------------------------------------------------------------
D---6--6--6--4--4--0--4--7--6--6--6--4--4--0--4--4--0--0--0--0--0--0----


                                  figure3
E------------------------------|-----------------------------------|----
B------------------------------|-----------------------------------|----
G------------------------------|-----------------------------------|----
D------------------------------|-----------------------------------|----
A------------------------------|-----------------5--5--6--6--5--5--|----
D---0--3--3--0--3--7--7--9--7--|--6--0--6--4--3--------------------|----



E-----------------------------------------------------------------------
B-----------------------------------------------------------------------
G-----------------------------------------------------------------------
D------------------0--0--1--1--0--0-------------------------------------
A------------------0--0--1--1--0--0-------------------------------------
D---6--0--6--4--3--0--0--1--1--0--0-------------------------------------

  Visit MetalTabs.com for more metal tablature

bottom separator

Contact Us | Privacy Policy | Disclaimer | Legal Notice
Copyright © 2001-2014 MetalTabs.com. All Rights Reserved.