top separator

Home

Forum

What's New

Submit a Tab

FAQ

Links

Contact Us

Link to Us

MuSpy.com

MetalTabs.com logo

Bands

0-9

A

B

C

D

E

F

G

H

I

J

K

L

M

N

O

P

Q

R

S

T

U

V

W

X

Y

Z

Search

What

Where
 

Bolt Thrower - "When Glory Beckons" Guitar Tab

Plain Text Version
More Bolt Thrower Tabs

Hits: 6311
Rated: 3.00 out of 5 (4 votes)
Updated: 2001-11-24 04:56:18

 

Important note
This tab is available online because we obtained explicit permission from Bolt Thrower or their label.


#----------------------------------PLEASE NOTE---------------------------------#
#This file is the author's own work and represents their interpretation of the #
#song. You may only use this file for private study, scholarship, or research. #
#Unless specified otherwise, this is NOT an official tab from the band members.#
#------------------------------------------------------------------------------#

  Visit MetalTabs.com for more metal tablature
  
                           when glory beckons
             by bolt thrower, on the album "...for victory"
drop d tuning...i'm sure this tab isn't very good as it's my first one
but's in the ball park repeat parts as necessary any questions or comments-jt83@msn.com



    sifq 1e ghr.w1    eifq 1e gqrq 2w
E------------------|----------------------------------------------------
B------------------|----------------------------------------------------
G------------------|----------------------------------------------------
D---0--3--0--4--0--|--0--3--0--4/6--7~~~--------------------------------
A---0--3--0--4--0--|----------------------------------------------------
D---0--3--0--4--0--|----------------------------------------------------


                   verse sifs- sals mstesals  s  s  s  s  s  s  s  s
E-----------------------------------------------------------------------
B-----------------------------------------------------------------------
G-----------------------------------------------------------------------
D-----------------------------------------------------------------------
A-----------------------------------------------------------------------
D---------------------4--4--4--4--4--4--4--3--3--0--0--0--0--0--0--0----


    s  s  s  s  s  s  s  s  s  s  s  s
E-----------------------------------------------------------------------
B-----------------------------------------------------------------------
G-----------------------------------------------------------------------
D-----------------------------------------------------------------------
A-----------------------------------------------------------------------
D---4--4--4--4--4--3--4--6--7--7--7--0----------------------------------


                               ereschsruq     e  s  s  s  e     q  s
E------------------------------------------|-----------------|----------
B------------------------------------------|-----------------|----------
G------------------------------------------|-----------------|----------
D------------------------------0--3--4--7--|--0--3--4--7--8--|--0--3----
A------------------------------0--3--4--7--|--0--3--4--7--8--|--0--3----
D------------------------------0--3--4--7--|--0--3--4--7--8--|--0--3----


    s  q     q  s  s  s  h     ehosuse  q     e  s  s  s  e     q  s
E---------|-----------------|-------------------------------------------
B---------|-----------------|-------------------------------------------
G---------|-----------------|-------------------------------------------
D---4--7--|--0--3--4--6--1--|--0--3--4--7~~~--0--3--4--7--8~~~--0--3----
A---4--7--|--0--3--4--6--1--|-------------------------------------------
D---4--7--|--0--3--4--6--1--|-------------------------------------------


    s  q     q  s  s  s  h        eife 2e gsr.e  e  s  e  e  e  e  e
E---------------------------|-------------------------------------------
B---------------------------|-------------------------------------------
G---------------------------|-------------------------------------------
D---4--7~~~--0--3--4--7--1--|-----0--3--3--0--4--4--0--3--3--0--3--3----
A---------------------------|-----0--3--3--0--4--4--0--3--3--0--3--3----
D---------------------------|-----0--3--3--0--4--4--0--3--3--0--3--3----


    s  e  e  s  s  s  e        elae teics, ehee: s  e  e
E------------------------|--------------------------------|-------------
B------------------------|--------------------------------|-------------
G------------------------|--------------------------------|-------------
D---0--4--4--0--3--4--3--|-----0--3--3--0--7--6--0--6--4--|-------------
A---0--4--4--0--3--4--3--|-----0--3--3--0--7--6--0--6--4--|-------------
D---0--4--4--0--3--4--3--|-----0--3--3--0--7--6--0--6--4--|-------------


    eife 2e gsr.e  e  s  e  e  e  e  e  s  e  e  s  s  s  e
E------------------------------------------------------------||---------
B------------------------------------------------------------||---------
G------------------------------------------------------------||---------
D---0--3--3--0--4--4--0--3--3--0--3--3--0--4--4--0--3--4--3--||---------
A------------------------------------------------------------||---------
D------------------------------------------------------------||---------


    elae teics, ehee: s  e  e
E------------------------------|----------------------------------------
B------------------------------|----------------------------------------
G------------------------------|----------------------------------------
D---0--3--3--0--7--6--0--6--4--|----------------------------------------
A------------------------------|----------------------------------------
D------------------------------|----------------------------------------




========================================================================
==                       TABLATURE EXPLANATION                        ==
========================================================================

----------                ----------                ----t---
----5h8--- Hammeron       ----(8)--- Ghost          ----6--- Tap
----------                ---------- Note           --------
----5p8--- Pulloff        ----------                --------

----------                ----------                -----p--
----5/8--- Slide Up       -----x---- Dead           -----7-- Pop
----------                ---------- Note           --s-----
----5\8--- Slide Down     ----------                --5----- Slap

----------                ||------|| Repeat         --------
----5~~~-- Vibrato        ||*----*||                ---5^--- Bend
----------                ||*----*||                --------
----------                ||------||                --------

----------                ----------                --------
-4:------- Time           ----------                --------
-4:------- Signature      ----------                --------
----------                ----------                --------

Rhythm:
  w = whole note            W = dotted whole
  h = half note             H = dotted half
  q = quarter note          Q = dotted quarter
  e = eighth note           E = dotted eighth
  s = sixteenth note        S = dotted sixteenth
  t = 32nd note             T = dotted 32nd
  x = 64th note             X = dotted 64th
  ^ = triplet

  Visit MetalTabs.com for more metal tablature

bottom separator

Contact Us | Privacy Policy | Disclaimer | Legal Notice
Copyright © 2001-2014 MetalTabs.com. All Rights Reserved.