top separator

Home

Forum

FAQ

Contact Us

Link to Us

MetalTabs.com logo

Bands

0-9

A

B

C

D

E

F

G

H

I

J

K

L

M

N

O

P

Q

R

S

T

U

V

W

X

Y

Z

Biohazard - "Breakdown" Guitar Tab

Plain Text Version
More Biohazard Tabs

Hits: 3351
Rated: 4.00 out of 5 (1 vote)
Updated: 2001-11-21 12:50:45


#----------------------------------PLEASE NOTE---------------------------------#
#This file is the author's own work and represents their interpretation of the #
#song. You may only use this file for private study, scholarship, or research. #
#Unless specified otherwise, this is NOT an official tab from the band members.#
#------------------------------------------------------------------------------#

  Visit MetalTabs.com for more metal tablature
  
Taken with permission from http://come.to/biohazard

moshbaby <jonah_dean@hotmail.com>

++++++++++++++++++++++++
BIOHAZARD - "Breakdown"
++++++++++++++++++++++++
Album: New World Disorder 99


- dropped D tuning -



INTRO/VERSE
e|------------------------------------
b|------------------------------------
g|------------------------------------
d|------------------------------2-----
a|--666666--7\----4-1---1-4---1-0-----
e|--666666--7\----4-1---1-4---1-0-----


PRE/CH
e|--------------------------------------------
b|--------------------------------------------
g|--------------------------------------------
d|----2---8-88\5--------2---8--10\5---------2-
a|--1-0-1-6-66\3--4---1-0-1-6---8\3---1-4-1-0-
e|--1---1---------4---1---1-----------1-4-1-0-



BREAK
e|--------------------------------------------
b|--------------------------------------------
g|--------------------------------------------
d|--0-----------------------------------------
a|--0---5-3-0-----66------5-3-0-----6-0-3-5---
e|--0---------0---66------------0---6-0-3-5---



e|--------------------------------------------
b|--------------------------------------------
g|--------------------------------------------
d|--0---8/10--7777---8/10---7777--8/10\7------
a|--0---6/8---5555---6/8----5555--6/8 \5---6--
e|--0--------------------------------------6--



[tabbed by HR/moshbaby * jonah_dean@hotmail.com]

  Visit MetalTabs.com for more metal tablature

bottom separator

Contact Us | Privacy Policy | Disclaimer
Copyright © 2001-2014 MetalTabs.com. All Rights Reserved.