top separator

Home

Forum

What's New

Submit a Tab

FAQ

Links

Contact Us

Link to Us

MuSpy.com

MetalTabs.com logo

Bands

0-9

A

B

C

D

E

F

G

H

I

J

K

L

M

N

O

P

Q

R

S

T

U

V

W

X

Y

Z

Search

What

Where
 

Within Tears - "Empty" Guitar Tab

Plain Text Version
More Within Tears Tabs

Hits: 4372
Rated: 5.00 out of 5 (2 votes)
Updated: 2001-11-16 13:22:25

 

By:

Father Death

sendpm.gif

email.gif

Important note
We did our best to reach Within Tears and ask for their permission to publish this tab. Unfortunately they did not respond to our requests or we could not find a way to contact them. This tab is available online until Within Tears tells us to take it down.


#----------------------------------PLEASE NOTE---------------------------------#
#This file is the author's own work and represents their interpretation of the #
#song. You may only use this file for private study, scholarship, or research. #
#Unless specified otherwise, this is NOT an official tab from the band members.#
#------------------------------------------------------------------------------#

  Visit MetalTabs.com for more metal tablature
  
Band:  Within Tears
Song:  Empty
Album: Moments of Life: Chapter One

Transcribed by:	Chris Humeniuk
         Email:	father_death_666@hotmail.com

Tuning:

string 1-3 - standard
string 4-5 - 2 step down
string   6 - 3 steps down

Unlike my last Within Tears tab, I did not transcibe everything I
could have, but you can play the entire song by following what I
am transcribing here.

Note: You can either tune your guitar my way, or just leave it in
      standard and have fun with only the high end parts...the
      heavy parts are a little off anyways...

Keys:

/ or \ - slide
  h    - hammer-on
___   - palm mute


RIFF I: (clean)

|--------------------------------------|
|--------------------------------------|
|--------------------------------------|
|-6--------4--------2---------4--------|
|-4--------2--------0---------2--------|
|--------------------------------------|


RIFF II: (dist.)

|-12---12\10-10----10/12-15---15-13-13\12-12\10-10\9-9/10-10/12-|
|---------------------------------------------------------------|
|---------------------------------------------------------------|
|---------------------------------------------------------------|
|---------------------------------------------------------------|
|---------------------------------------------------------------|


RIFF III: (clean)

|-------------------------------------------------------------
|--------------3-5--5/6-3----/8--6-5---6--5--3----------------
|-/7-----2-4-5----------------------------------5-4-2---5-4-2-
|-------------------------------------------------------------
|-------------------------------------------------------------
|-------------------------------------------------------------

----------------------------------|
----------------------------------|
-4h5-4--5-4-2---/7--5--4--5-4-2---|
----------------------------------|
----------------------------------|
----------------------------------|


RIFF IV: (clean)

|-------------------------------------|
|-------10------12--------10----------|
|-9h11------12------9h11------12--11--|
|-------------------------------------|
|-------------------------------------|
|-------------------------------------|


RIFF V: (dist.)

|-----------------------|
|-----------------------|
|-----------------------|
|-4--------2------2h3-2-|
|-4----0-0-2--2-2-2h3-2-|
|-4----0-0-2--2-2-2h3-2-|
       ___    ___


RIFF I


RIFF II


RIFF VIII: (clean)

|--------------------------------|
|-----------------11-10----------|
|-7-9-10-11-12-13-------11-9-7-6-|
|--------------------------------|
|--------------------------------|
|--------------------------------|


RIFF IX: (dist.)

|---------------------------------------------|
|-12----10------------------------------------|
|-------------11----9----7--------6--------7--|
|---------------------------------------------|
|---------------------------------------------|
|---------------------------------------------|


RIFF IV


RIFF XI:

|----------------------------------|
|----------------------------------|
|----------------------------------|
|----------------------------------|
|-00-00-00-00-000--00-00-00-00-000-|
|-00-00-00-00-000--00-00-00-00-000-|
  ________________________________


RIFF V


RIFF XIII: (clean)

|-------------------------|
|-------------------------|
|-------------------------|
|-------------------------|
|-------------------------|
|-0-----3-----4-----1-----|

RIFF XIV: (clean)

|----------9-10-----10-12--------------|
|----10----------10--------12-10-12----|
|-11-----9---------------------------9-|
|--------------------------------------|
|--------------------------------------|
|--------------------------------------|

  Visit MetalTabs.com for more metal tablature

bottom separator

Contact Us | Privacy Policy | Disclaimer | Legal Notice
Copyright © 2001-2014 MetalTabs.com. All Rights Reserved.