top separator

Home

Forum

What's New

Submit a Tab

FAQ

Links

Contact Us

Link to Us

MetalTabs.com logo

Bands

0-9

A

B

C

D

E

F

G

H

I

J

K

L

M

N

O

P

Q

R

S

T

U

V

W

X

Y

Z

Search

What

Where
 

Nile - "Stones of sorrow" Guitar Tab

Plain Text Version
More Nile Tabs

Hits: 10288
Rated: 4.12 out of 5 (8 votes)
Updated: 2001-11-16 12:39:49

 

Important note
This tab is available online because we obtained explicit permission from Nile or their label.


#----------------------------------PLEASE NOTE---------------------------------#
#This file is the author's own work and represents their interpretation of the #
#song. You may only use this file for private study, scholarship, or research. #
#Unless specified otherwise, this is NOT an official tab from the band members.#
#------------------------------------------------------------------------------#

  Visit MetalTabs.com for more metal tablature
  
Artist:	NILE
Song:		STONES OF SORROW
Album:	AMONGST THE CATACOMBS OF NEPHREN-KA
Version:	1.0 - October 2001

Tuning (Low - High): 	A E A D f# b - Drop D-tuning down 21/2 steps.
*Note*: This Tuning is DEFINATELY Right. I Spoke To Karl When They Played In
        Dublin And He Told Me So There.

^ - PALM MUTE
x - MUTE OVER FRETS
\ - SLIDE DOWN
/ - SLIDE UP
" - TREMOLO PICK
P - PULL OFF
H - HAMMER ON
AH- ARTIFICIAL HARMONIC
~ - VIBRATO

Transcribed By Adam ''Moloch'' Moylan.
Moloch@Ireland.Com


Drum Intro
[----------]
[----------]
[----------]
[----------]


Riff 1a
D [-------------------------------------------]
A [-------------------4-3---------------------]
E [-5-----6-----5-6-x-----x-5-6-5---4-------4-]
A [-----------------x-----x-------------5---4-]
		        ^     ^   ^

Riff 1b
D [---------------------------]
A [---------------------------]
E [-5-------------------------]
A [-5-----4-5-8-7-8-8-11-10-\-]
	    ^   ^   ^

Riff 1a"
D [-------------------6-5---------------------]
A [-7-----8-----8-8---4-3---7-8-7---6-------4-]
E [-5-----6-----5-6-x-----x-5-6-5---4---5---4-]
A [-----------------x-----x-------------5---4-]
		        ^     ^   ^





Riff 1b"
D [---------------------------]
A [-5-------------------------]
E [-5-----4-5-8-7-7-8-11-10-\-]
A [-5-----4-5-8-7-7-8-11-10-\-]
	    ^   ^   ^

Riff 2 (0:44)
D [---------------------------------------------------]
A [-2-/-3--------------------4-/-5-----4---5---8--7-\-]
E [-2-/-3-----2---3---6--5---2-/-3-----2---3---6--5-\-]
A [-2-/-3-----2---3---6--5--------------------------\-]
 		  ^       ^                ^
D [-------------------------------------------------]
A [-2-/-3--------------------4-/-5-----4---5---8--7-]
E [-2-/-3-----2---3---6--5---2-/-3-----2---3---6--5-]
A [-2-/-3-----2---3---6--5--------------------------]
		  ^       ^                ^

Riff 3 *Guitar 1L* (1:02)
b  [------------------------------------------][------]
f# [------------------------------------------][------]
D  [-/-13----2--------/-13----2---------------][-/-13-]
A  [-/-13----0--------/-13----0------0-1--0-1-][-/-13-]
E  [-/-11----0--------/-11--0-0------0-1--0-1-][-/-11-]
A  [---------0--------------0-0------0-1--0-1-][------]
                            ^	         ^    ^
Riff 3 *Guitar 2R* (1:02)
b  [------------------------------------------][------]
f# [-/-16-------------/-16--------------------][-/-16-]
D  [-/-13----2--------/-13----2---------------][-/-13-]
A  [-/-13----0--------/-13----0------0-1--0-1-][-/-13-]
E  [---------0--------------0-0------0-1--0-1-][------]
A  [---------0--------------0-0------0-1--0-1-][------]
			          ^          ^    ^

Riff 4 (2:00)
D [-7----------6----------5-]
A [-5----------4----------3-]
E [-5----------4----------3-]
A [-5----------4----------3-]


Riff 6 (2:11)
D [-------------]
A [-------------]
E [-------------]
A [-0--------2~-]


Riff 7 (2:13)
D [---------------------]
A [---------------------]
E [---------------------]
A [-2h3-3-3-3-3-3-3-3-3-]






Riff 8 (2:19)
D [-------------------------------------------------]
A [-------------------------------------------------]
E [-------------------------------------------------]
A [-2-2-2-2-2-2-3-3-3-3-3-3-2-2-2-2-2-2-2-2-2-2-2-2-]


Riff 10 (2:22)
D [---------------------------------]
A [---------------------------------]
E [---------------------------------]
A [-0-0-0-0-0-0-0-0-2-2-2-2-2-2-2-2-]


Riff 11 (2:27)
D [-------------------------------------------------]
A [-------------------------------------------------]
E [-------------------------------------------------]
A [-6-6-6-6-6-6-5-5-5-5-5-5-6-6-6-6-6-6-5-5-5-5-5-5-]


Riff 12 *Guitar 1L* (2:48)
D [-------------]
A [-2/3-3-3-3-3-]
E [-2/3-3-3-3-3-]
A [-2/3-3-3-3-3-]

Riff 12 *Guitar 2R* (2:48)
D [-4/5-5-5-5-5-]
A [-2/3-3-3-3-3-]
E [-2/3-3-3-3-3-]
A [-------------]


Riff 13 *Guitar 1L* (2:50)
D [-------------------------------------------------]
A [-------------------------------------------------]
E [-------------------------3-3-3-3-3-3-2-2-2-2-2-2-]
A [-5-5-5-5-5-5-6-6-6-6-6-6-------------------------]

Riff 13 *Guitar 2R* (2:50)
D [-------------------------------------------------]
A [-0-0-0-0-0-0-0-1-1-1-1-1-5-5-5-5-5-5-4-4-4-4-4-4-]
E [-------------------------------------------------]
A [-------------------------------------------------]


Riff 14 - Under Solo (2:54)
D [-8-8----7-7----5-5-]
A [-8-8----7-7----5-5-]
E [-6-6----5-5----3-3-]
A [--------0-0--------]
    ^      ^      ^




Riff 15 (3:05)
D [-------------------]
A [-8----10----7----0-]
E [-8----10----7----0-]
A [-8----10----7-\\\0-]


Riff 16 (3:10)
D [-7-7----8-8----7-7-]
A [-7-7----8-8----7-7-]
E [-8-8----6-6----5-5-]
A [---------------0-0-]
    ^      ^      ^

Riff 17 *Guitar 1L* (3:21)
D [-8-8----7-7----5-5----3-3-----6-\-0-]
A [-8-8----7-7----5-5----3-3-----6-\-0-]
E [-6-6----5-5----3-3----1-1-----4-\-0-]
A [--------0-0-------------------------]
    ^      ^      ^      ^           ^
Riff 17 *Guitar 2R* (3:21)
D [-8-8----7-7----5-5----3-3-----------]
A [-8-8----7-7----5-5----3-3-----6-\-0-]
E [-6-6----5-5----3-3----1-1-----4-\-0-]
A [--------0-0-------------------4-\-0-]
    ^      ^      ^      ^           ^

Solo - Still Working on it but the basic slow part is:
b  [----------]
f# [----------]
D  [----------]
A  [----------]
E  [----------]
A  [----------]

Outro - I'm Also Working On A Guitar And Bass Arrangement For This.
b  [----------]
f# [----------]
D  [----------]
A  [----------]
E  [----------]
A  [----------]

E-Mail Me Corrections Or Solo.
Adam 'Moloch' Moylan
Moloch@Ireland.com

Bass Version Also Available!!

  Visit MetalTabs.com for more metal tablature

bottom separator

Contact Us | Privacy Policy | Disclaimer | Legal Notice
Copyright © 2001-2014 MetalTabs.com. All Rights Reserved.