top separator

Home

Forum

What's New

Submit a Tab

FAQ

Links

Contact Us

Link to Us

MuSpy.com

MetalTabs.com logo

Bands

0-9

A

B

C

D

E

F

G

H

I

J

K

L

M

N

O

P

Q

R

S

T

U

V

W

X

Y

Z

Search

What

Where
 

Cemetary - "Sweet Tragedy" Guitar Tab

Plain Text Version
More Cemetary Tabs

Hits: 3559
Updated: 2001-11-11 11:41:07

 

Important note
This tab is available online because we obtained explicit permission from Cemetary or their label.


#----------------------------------PLEASE NOTE---------------------------------#
#This file is the author's own work and represents their interpretation of the #
#song. You may only use this file for private study, scholarship, or research. #
#Unless specified otherwise, this is NOT an official tab from the band members.#
#------------------------------------------------------------------------------#

  Visit MetalTabs.com for more metal tablature
  
			CEMETARY - SWEET TRAGEDY
		      From the album "Black vanity"
	              Copyright Black Mark Records
		         Version 2.0 - Jul 2001

Transcribed by: HARIS DURAKOVIC

For Questions, Comments, Newest Version, or Corrections contact
HARIS DURAKOVIC: at foreverlorn@gmx.de



--S W E E T  T R A G E D Y--


Short drum intro

Intro and refrain
|-----------------------|
|-----------------------|
|-----------------------| Rhythm
|-9-----10------7-----5-|
|-7-----7-------5-----3-|
|----0-------0-----0----|
     .       .     .




|-7p3-7p3-7p3-7p3-7p3-|
|---------------------|
|---------------------|
|---------------------| Lead
|---------------------|
|---------------------|




Riff 1
|----------------------------------------------------------|
|----------------------------------------------------------|
|----------------------------------------------------------| both
|-2-----------------2--4--7--5--10------------------12--14-| guitars
|-2-----------------2--4--7--5--10-------------9----12--14-|
|-0--0-0-0-0-0-0-0--0--2--5--3--8---8-8-8-8-8--8----10--12-|
     . . . . . . .                  . . . . .



Bass bridge before solo (with flanger and stuff)
|----------------------------|----------------------------------|
|----------------------------|----------------------------------|
|----------------------------|----------------------------------|
|----------------------------|----------------------------------|
|----------------------------|----------------------------------|
|-0--7--5--3--0--0--8--0--10-|-0--7--5--3--0--0--7--0--8--0--10-|




Rhythm under solo
|---------------------------------------|--------------------------------|
|---------------------------------------|--------------------------------|
|---------------------------------------|--------------------------------|
|-2--9--7--5--2--2--10--2--12-----------|-2--9--7--5--2--9--2--10--2--12-|
|-2--9--7--5--2--2--10--2--12-----------|-2--9--7--5--2--9--2--10--2--12-|
|-0--7--5--3--0--0--8---0--10--10-10-10-|-0--7--5--3--0--7--0--8---0--10-|
   				.  .  .




Solo
|-17h19p17h19p17h19p17~-15---------------------------|
|--------------------------19-17-13h15p13~-15h17p15~-|
|----------------------------------------------------|
|----------------------------------------------------|
|----------------------------------------------------|
|----------------------------------------------------|





|-------19-------17----------12----------------------------------------|
|-17-17----17-15----13-12-13----15-13-12----12-------------------------|
|----------------------------------------14-----------12-14bh-14bh-12~-|
|----------------------------------------------14--14------------------|
|----------------------------------------------------------------------|
|----------------------------------------------------------------------|






|-------------------------------------------------------------------|
|-------------------------------------------------------------------|
|-11--12p11---------------------------12h14-16h17-19-17-16~-19~-21~-|
|-----------14--12-10--9h10p9~--14h16-------------------------------|
|-------------------------------------------------------------------|
|-------------------------------------------------------------------|





|------------------|
|-19b(20)b19--17~~-|
|------------------|
|------------------|
|------------------|
|------------------|




Structure:

Intro:		4x
Riff 1:		4x
Refrain:	4x
Riff 1:		4x
Refrain:	4x
Bass bridge:	(3x)
Solo Rhythm:	2x
Refrain:	8x and let it fade out!


This classic Gothic Metal track is for everyone who is totally disappointed from SUNDOWN!
For corrections mail me: foreverlorn@gmx.de

  Visit MetalTabs.com for more metal tablature

bottom separator

Contact Us | Privacy Policy | Disclaimer | Legal Notice
Copyright © 2001-2014 MetalTabs.com. All Rights Reserved.