top separator

Home

Forum

What's New

Submit a Tab

FAQ

Links

Contact Us

Link to Us

MetalTabs.com logo

Bands

0-9

A

B

C

D

E

F

G

H

I

J

K

L

M

N

O

P

Q

R

S

T

U

V

W

X

Y

Z

Search

What

Where
 

Desultory - "Life Shatters" Guitar Tab

Plain Text Version
More Desultory Tabs

Hits: 3489
Rated: 4.00 out of 5 (2 votes)
Updated: 2001-11-11 11:04:03

 

Important note
We did our best to reach Desultory and ask for their permission to publish this tab. Unfortunately they did not respond to our requests or we could not find a way to contact them. This tab is available online until Desultory tells us to take it down.


#----------------------------------PLEASE NOTE---------------------------------#
#This file is the author's own work and represents their interpretation of the #
#song. You may only use this file for private study, scholarship, or research. #
#Unless specified otherwise, this is NOT an official tab from the band members.#
#------------------------------------------------------------------------------#

  Visit MetalTabs.com for more metal tablature
  
                      DESULTORY - LIFE SHATTERS
                      From the Album BITTERNESS
                     Copyright ? METALBLADE RECS
                       Version 1.0 - JUL 2001

Transcribed by: HARIS DURAKOVIC

For Questions, Comments, Newest Version, or Corrections contact
HARIS DURAKOVIC: at foreverlorn@gmx.de

..  - palm mute          /  - slide up to
 \  - slide down to      ~  - vibrato
 h  - hammer on          b  - bend
 p  - pull off            Suffixes for bend
                          ph - pinch harmonic
                           f - full bend    h - half bend
*  - see comment           r - release      t - tap bend
X  - percussion mute       ~ - vibrato bend
@  - slight palm mute     () - ghost note, sustained note


Note:

Dunno if this is 100% equal to
the real stuff for I can't
listen to the CD! It's at home!




--L I F E  S H A T T E R S--

Riff A *
|------------------------------|
|------------------------------|
|----------4--------5--------7-|both
|-2--------4--------5--------7-|Gtrs
|-2--------2--------3--------5-|
|-0----------------------------|



* Fill in after some times
|----------------------------|
|-----------8-7-8~-----------|
|-------------------------7~-|Gtr
|-9-7-9~--------------9-7----| II
|----------------------------|
|----------------------------|



Riff B     *
|------------------------------|
|------------------------------|
|------------------------------|both
|-2------2----2----------------|Gtrs
|-2------2----2----2-----2-----|
|-0--0-0-0--0-0--1---1-2---1-2-|
     . .    .


* Fill in after some times
|-------------------------------|
|-------------------------------|
|----------------------/9-9-9~\-|Gtr
|-------------------------------| II
|-/7-7-7~\----------------------|
|-------------------------------|



Riff C
|----------------------------------------------------------|
|----------------------------------------------------------|
|-------------------9--------------------------------------|Gtr
|----------------9-----10--9-10--10--12--10--9--10--9--7-9-| I
|-7--7-10--9--7--------------------------------------------|
|----------------------------------------------------------|
|                                                          |
|----------------------------------------------------------|
|----------------------------------------------------------|
|----------------------------------------------------------|Gtr
|-2---------------------------5----------------------------| II
|-2---------------------------5----------------------------|
|-0---------------------------3----------------------------|



|--------------------------------------------------------------|
|--------------------------------------------------------------|
|-------------------9------12--12-12--14--12--11------12-11----|Gtr
|----------------9-----10-------------------------12--------12-| I
|-7--7-10--9--7------------------------------------------------|
|--------------------------------------------------------------|
|							       |
|--------------------------------------------------------------|
|--------------------------------------------------------------|
|--------------------------------------------------------------|Gtr
|-2--------------------------5---------------------------------| II
|-2--------------------------5---------------------------------|
|-0--------------------------3---------------------------------|




Riff D (while Gtr I plays the E and G)
|-------------------------------------------------------|
|-------------------------------------------------------|
|-------------------------------------------------------|Gtr
|------7h9--7-----9--10------9----9--7-----9--10--------| II
|-7-7----------7---------10-------------7---------10--9-|
|-------------------------------------------------------|


Riff Ea
|----------------------------------------------------------------------|
|----------------------------------------------------------------------|
|----------------------------------------------------------------------|Gtr
|-2-----------------------------------2--------------------------------| I
|-2-----------------------------------2--------------------------------|
|-0----15-17-15-17-15-17-15-17-15~----0----15-17-15-17-15-17-15-17-15~-|
|								       |
|----------------------------------------------------------------------|
|----------------------------------------------------------------------|
|----------------------------------------------------------------------|Gtr
|-2-----------------------------------2--------------------------------| II
|-2----14-15-14-15-14-15-14-15-14~----2----14-15-14-15-14-15-14-15-14~-|
|-0-----------------------------------0--------------------------------|



|------------------------------------------------------------------------|
|------------------------------------------------------------------------|
|------------------------------------------------------------------------|Gtr
|-10-----------------------------------10--------------------------------| I
|-10----14-15-14-15-14-15-14-15-14~----10----14-15-14-15-14-15-14-15-14~-|
|-8------------------------------------8---------------------------------|
|								         |
|------------------------------------------------------------------------|
|------------------------------------------------------------------------|
|------------------------------------------------------------------------|Gtr
|-10-----------------------------------10--------------------------------| II
|-10-----------------------------------10--------------------------------|
|-8-----15-17-15-17-15-17-15-17-15~----8-----15-17-15-17-15-17-15-17-15~-|




Riff Eb (repeat and then instead of E play C)
|-----------------------------------------|
|-----------------------------------------|
|-----------------------------------------|Gtr
|-2-------------------------------------2-| I
|-2---------------14-15-14~~------------2-|
|-0-------------------------------------0-|
|		                          |
|-----------------------------------------|
|-----------------------------------------|
|-----------------------------------------|Gtr
|-2-------------------------------------2-| II
|-2-------------------------------------2-|
|-0----15-17-15~~------------15-17-15~--0-|



Solo
|--------------------------------------------------------------------|
|----------------------------------10--------------------------------|
|-9~----12-9~-----/12--12--11--12------12--11--12--11--9--11--9------|
|----------------------------------------------------------------12--|
|--------------------------------------------------------------------|
|--------------------------------------------------------------------|



|--------------------------------------------------------------------|
|--------------------------------------------------------------------|
|------------------------------------------------------------/9~~----|
|-10~----12-10~----10-12-10-9-10-9----9------------------------------|
|----------------------------------12---12--10--9-10-9-7~~-----------|
|--------------------------------------------------------------------|


	*
|--------------------------------------------------------------------|
|----------------------10101010--------12--10~~---------10-----------|
|-/99991212121211111111--------12121212-------------12-----12--11/12-|*These are "10's"
|--------------------------------------------------------------------|"11's" and "12's)
|--------------------------------------------------------------------|
|--------------------------------------------------------------------|



|----------------------------------------------|
|-------------10-------------------------------|
|-12~~-----12----12-11-12-11-9-11bhr----9--9~~-|
|----------------------------------------------|
|----------------------------------------------|
|----------------------------------------------|

  Visit MetalTabs.com for more metal tablature

bottom separator

Contact Us | Privacy Policy | Disclaimer | Legal Notice
Copyright © 2001-2014 MetalTabs.com. All Rights Reserved.