top separator

Home

Forum

What's New

Submit a Tab

FAQ

Links

Contact Us

Link to Us

MuSpy.com

MetalTabs.com logo

Bands

0-9

A

B

C

D

E

F

G

H

I

J

K

L

M

N

O

P

Q

R

S

T

U

V

W

X

Y

Z

Search

What

Where
 

Desultory - "Winter Cold Bitterness" Guitar Tab

Plain Text Version
More Desultory Tabs

Hits: 3166
Updated: 2001-11-11 11:03:49

 

Important note
We did our best to reach Desultory and ask for their permission to publish this tab. Unfortunately they did not respond to our requests or we could not find a way to contact them. This tab is available online until Desultory tells us to take it down.


#----------------------------------PLEASE NOTE---------------------------------#
#This file is the author's own work and represents their interpretation of the #
#song. You may only use this file for private study, scholarship, or research. #
#Unless specified otherwise, this is NOT an official tab from the band members.#
#------------------------------------------------------------------------------#

  Visit MetalTabs.com for more metal tablature
  
                          DESULTORY - WINTER
                       From the Album BITTERNESS
                     Copyright 1994 METALBLADE RECS
                        Version 1.0 - JUL 2001

Transcribed by: HARIS DURAKOVIC

For Questions, Comments, Newest Version, or Corrections contact
HARIS DURAKOVIC: at foreverlorn@gmx.de

..  - palm mute          /  - slide up to
 \  - slide down to      ~  - vibrato
 h  - hammer on          b  - bend
 p  - pull off            Suffixes for bend
                          ph - pinch harmonic
                           f - full bend    h - half bend
*  - see comment           r - release      t - tap bend
X  - percussion mute       ~ - vibrato bend
@  - slight palm mute     () - ghost note, sustained note


Tune down to d

--W I N T E R--


Riff A (first Gtr I alone then both)
|---------------------------------------------------|
|---------------------------------------------------|
|---------------------------------------------------|Gtr
|---------2-------7--5--9\----------2-------7--5--4-| I
|---------2-------------------------2---------------|
|-0-0-0-0-0-------5--3--7\--0-0-0-0-0-------5--3--2-|
| . . . .                   . . . .                 |
|---------------------------------------------------|
|---------------------------------------------------|
|---------------------------------------------------|Gtr
|---------2-------------------------2---------------| II
|---------2-------7--5--9\----------2-------7--5--4-|
|-0-0-0-0-0-----------------0-0-0-0-0---------------|
  . . . .                   . . . .



Riff B
|--------------------------------------------|
|--------------------------------------------|
|---------------------4---4~~----4---/7~--6~-|Gtr
|-5--4-----5--4-----5---7----------7---------| I
|-------5--------5---------------------------|
|--------------------------------------------|
|                                            |
|--------------------------------------------|
|--------------------------------------------|
|--------------------------------------------|Gtr
|-2-----------------5------------------------| II
|-2-----------------5------------------------|
|-0-----------------3------------------------|



Riff C (vocals)
|------------------------------|
|------------------------------|
|-------------------/4-----4~~-|Gtr (while Gtr II plays Riff B)
|-5--4-----5--4---------7------| I
|-------5--------5-------------|
|------------------------------|



Chorus (while Gtr II plays Riff A)
|-----------------------------------------------|
|-----------------------------------------------|
|-----------------------------------------------|
|-10p9-9-9-9-------10p9-9-9-9---\5-5-5/7-7-7-7\-|
|-----------------------------------------------|
|-----------------------------------------------|



Riff D'
|-------------------------------|
|-------------------------------|
|-----------------------------5-|both
|-2-2-----2-2-----2-2-----3-3-5-|Gtrs
|-2-2-----2-2-----2-2-----3-3-3-|
|-0-0-----0-0-----0-0-----1-1---|



Riff D''
|-------------------------------|
|-------------------------------|
|-----------------------------5-|Gtr
|-2-2-----2-2-----2-2-----3-3-5-| I
|-2-2-----2-2-----2-2-----3-3-3-|
|-0-0-----0-0-----0-0-----1-1---|
|                               |
|-------------------------------|
|-------------------------------|
|-----------------------------5-|Gtr
|-------------------------3-3-5-| II
|-------------------------3-3-3-|
|-0000000000000000000000001-1---|
  ........................



Solo (Gtr II playing Riff B)
|-----------------------------------------------------------|
|-----------------------12--10-----10---------10------------|
|----12-11~-----12-11~----------12----12~--12----12--11--12-|
|-9----------9----------------------------------------------|
|-----------------------------------------------------------|
|-----------------------------------------------------------|



|-------------------------------------------------------------|
|-------------------------------------------------------------|
|-11h12p11\9~--12-11h12p11\9~--12-11h12p11\9~--12-11h12p11\9~-|
|-------------------------------------------------------------|
|-------------------------------------------------------------|
|-------------------------------------------------------------|



|-----------------------------12~--------------------|
|------------12------------12------12~-------12~-----|
|--------12------12--11-12--------------12~-------12-|
|-12--9----------------------------------------------|
|----------------------------------------------------|
|----------------------------------------------------|



|-----------------------------------------------------|
|-----------------------------------------------------|
|-11h12p11\9-11-12-11h12p11p9-11~--12-11h12p11p9-/14~-|
|-----------------------------------------------------|
|-----------------------------------------------------|
|-----------------------------------------------------|




|--------------------------------------------------------------------|
|--------------------12----------------------------------------------|
|-9--12--11--14--12------14~--12-14-12-11-12-11~--14-12h14p12-11-12~-|
|--------------------------------------------------------------------|
|--------------------------------------------------------------------|
|--------------------------------------------------------------------|



|----------------------------------|
|----------------------------------|
|-14-12h14p12-11-12~--11h12p11-9~~-|
|----------------------------------|
|----------------------------------|
|----------------------------------|

  Visit MetalTabs.com for more metal tablature

bottom separator

Contact Us | Privacy Policy | Disclaimer | Legal Notice
Copyright © 2001-2014 MetalTabs.com. All Rights Reserved.