top separator

Home

Forum

What's New

Submit a Tab

FAQ

Links

Contact Us

Link to Us

MuSpy.com

MetalTabs.com logo

Bands

0-9

A

B

C

D

E

F

G

H

I

J

K

L

M

N

O

P

Q

R

S

T

U

V

W

X

Y

Z

Search

What

Where
 

Tristania - "Sirene" Guitar Tab

Plain Text Version
More Tristania Tabs

Hits: 13451
Rated: 4.44 out of 5 (39 votes)
Updated: 2001-11-16 13:04:12

 

Important note
This tab is available online because we obtained explicit permission from Tristania or their label.


#----------------------------------PLEASE NOTE---------------------------------#
#This file is the author's own work and represents their interpretation of the #
#song. You may only use this file for private study, scholarship, or research. #
#Unless specified otherwise, this is NOT an official tab from the band members.#
#------------------------------------------------------------------------------#

  Visit MetalTabs.com for more metal tablature
  
Tristania - Sirene
Album: Tristania - Midwintertears/Angina
Transcription by Angel In Flames

Email me: garnet_ibanez@hotmail.com if you have any comments,
additional riffs or something to add in.. corrections are also
welcomed..

Note: the riffs are not in timing listen to song to get a feel of
      the timing.

Intro
Acoustic Guitar

Riff A
E|----------------------------------|
B|------5-3-------------------------|
G|-2-2------5-4-5--5-4-2-4---4^5-2--|   ^ = Pull off
D|-----------------------5-2--------|
A|----------------------------------|
E|----------------------------------|

Riff B
E|------------------------------|
B|------5-3---------------1--3-1|
G|-0-2------5-4-5--5-4-2--2--4-2|
D|------------------------------|
A|------------------------------|
E|------------------------------|

Riff C
E|----------------------------------|
B|------5-3-------------------------|
G|-2-2------5-4-5--5-4-2-4---4^5-2--|
D|-----------------------5-2--------|
A|----------------------------------|
E|----------------------------------|

Riff D same as Riff B
E|------------------------------|
B|------5-3---------------1--3-1|
G|-0-2------5-4-5--5-4-2--2--4-2|
D|------------------------------|
A|------------------------------|
E|------------------------------|

Keep repeating riff C and then riff D until fade out.

  Visit MetalTabs.com for more metal tablature

bottom separator

Contact Us | Privacy Policy | Disclaimer | Legal Notice
Copyright © 2001-2014 MetalTabs.com. All Rights Reserved.