top separator

Home

Forum

What's New

Submit a Tab

FAQ

Links

Contact Us

Link to Us

MetalTabs.com logo

Bands

0-9

A

B

C

D

E

F

G

H

I

J

K

L

M

N

O

P

Q

R

S

T

U

V

W

X

Y

Z

Search

What

Where
 

Grave - "Brutally deceased" Guitar Tab

Plain Text Version
More Grave Tabs

Hits: 4691
Updated: 2001-10-14 11:56:22

 

By:

INVERTED

sendpm.gif

email.gif

Important note
We did our best to reach Grave and ask for their permission to publish this tab. Unfortunately they did not respond to our requests or we could not find a way to contact them. This tab is available online until Grave tells us to take it down.


#----------------------------------PLEASE NOTE---------------------------------#
#This file is the author's own work and represents their interpretation of the #
#song. You may only use this file for private study, scholarship, or research. #
#Unless specified otherwise, this is NOT an official tab from the band members.#
#------------------------------------------------------------------------------#

  Visit MetalTabs.com for more metal tablature
  
                           GRAVE - BRUTALLY DECEASED
                       >From the Album: YOU'LL NEVER SEE...
                          Copyright: Century Media 1992

                           Version 1.0 - October 2001

Transcribed by: James Williams (Inverted)

For Questions, Comments, Newest Version, or Corrections contact
Inverted: at Inverted_one@hotmail.com

Check Out Death8699.com or Metaltabs.com for More Transcriptions:
 http://www.Death8699.com http://www.Metaltabs.com

 .  - palm mute           /  - slide up to
 \  - slide down to       ~  - vibrato
 h  - hammer on           b  - bend
 p  - pull off            Suffixes for bend ^
 ph - pinched harmonic     f - full bend    h - half bend
 *  - see comment          r - release      t - tap bend
 X  - Stuccatto            ~ - vibrato bend q - quarter bend
 ,  - slight palm mute    () - ghost note, sustained note

Tune Guitar to "B"E"A"D"F#"D"

BRUTALLY DECEASED!

Riff 1 - A
|----------------------------------------------------|
|----------------------------------------------------|
|----------------------------------------------------|
|----------------------------------------------------|
|--------444444------------222222--------------------|
|--222222------555555444444------444444555555444444--|


Riff 1 - B
|----------------------------------------------------|
|----------------------------------------------------|
|----------------------------------------------------|
|--------4-----------------2-------------------------|
|--2-----2-----5-----4-----0-----4-----5-----4-------|
|--0-----------3-----2-----------2-----3-----2-------|

Riff 2
|---------------------------------------|
|---------------------------------------|
|---------------------------------------|
|-------3------3-4------3---------------|
|-------1------1-2------1---------------|
|--0000---0000-----0000---000044552222--|
spm,,,,   ,,,,     ,,,,   ,,,,,,,,,,,,

Riff 3
|------------------------------------------------------|
|------------------------------------------------------|
|------------------------------------------------------|
|------------------------------------------------------|
|--2---------------------------2--------------------3--|
|--0------3------2------3------0------3------2---------|

Lead 1
|----------------------------------------------------------|
|---------------------------------------------------bh-----|
|------------------------------------------------10-9^(9)--|
|----------10-9-----8------10----10-9-----8----------------|
|--15/7--7------10----10-9-----7------10----10-9-----------|
|----------------------------------------------------------|

Riff 4
|--------------------------------------------------------------------------|
|--------------------------------------------------------------------------|
|--------------------------------------------------------------------------|
|-----------------------------------------------------------------5-5-5-5--|
|--2-2-2-2--5-5-5-5--4-4-4-4--5-5-5-5--2-2-2-2--5-5-5-5--4-4-4-4--3-3-3-3--|
|--0-0-0-0--3-3-3-3--2-2-2-2--3-3-3-3--0-0-0-0--3-3-3-3--2-2-2-2-----------|
pm . . . .  . . . .  . . . .  . . . .  . . . .  . . . .  . . . .  . . . .

End Riff 4
||-------||
||-------||
||-------||
||---2---||
||---2---||
||---0---||

Riff 5
|-------------------|
|-------------------|
|-------------------|
|-----4--5----------|
|--2--2--3----5--4--|
|--0----------3--2--|

Lead 2
|------------------------------------------------------------12-11-12^(12)--|
|----------------------------------11-12-----------11--12-11--------bh------|
|--------------------------10-9--9~-------12-11--9~-------------------------|
|----9-10----------9--10-9--------------------------------------------------|
|--7~------10-9--7~---------------------------------------------------------|
|---------------------------------------------------------------------------|

SONG STRUCTURE:

Riff (1-A) x 10 Gtr I
Riff (1-A) x 2  (1-B) x 1 (1-A) x4 Gtr II
Riff ( 2 ) x 6
Riff (1-A) x 4
Riff ( 2 ) x 6
Riff ( 3 ) x 1 Lead ( 1 ) x 1 Gtr I
Riff ( 3 ) x 2 Gtr II
Riff ( 4 ) x 2
Riff ( 5 ) x 8 Lead ( 2 ) x 1 Gtr I
Riff ( 5 ) x 12 Gtr II
Riff (1-A) x 6 Gtr I
Riff (1-B) x 1 (1-A) x4 Gtr II
Riff ( 2 ) x 6
Riff ( 3 ) x 1 Lead ( 1 ) x 1 Gtr I
Riff ( 3 ) x 2 Gtr II
Riff ( 4 ) x 2

 Check out my other tabs by Grave, Hypocrisy and Obituary.

  Visit MetalTabs.com for more metal tablature

bottom separator

Contact Us | Privacy Policy | Disclaimer | Legal Notice
Copyright © 2001-2014 MetalTabs.com. All Rights Reserved.