top separator

Home

Forum

FAQ

Contact Us

Link to Us

MetalTabs.com logo

Bands

0-9

A

B

C

D

E

F

G

H

I

J

K

L

M

N

O

P

Q

R

S

T

U

V

W

X

Y

Z

Cannibal Corpse - "Unleashing The Bloodthristy" Guitar Tab

Plain Text Version
More Cannibal Corpse Tabs

Hits: 5340
Rated: 2.88 out of 5 (8 votes)
Updated: 2001-10-08 14:55:14

By:

azagthoth_666


#----------------------------------PLEASE NOTE---------------------------------#
#This file is the author's own work and represents their interpretation of the #
#song. You may only use this file for private study, scholarship, or research. #
#Unless specified otherwise, this is NOT an official tab from the band members.#
#------------------------------------------------------------------------------#

  Visit MetalTabs.com for more metal tablature
  
Taken with permission from www.cannibalcorpse1.com

            Cannibal Corpse - Unleashing The Bloodthirsty
                     From the Album Bloodthirst
                Copyright 1999 Metal Blade Records
                     Version 1.0 - January 2001

Transcribed by: Bobby Rafuse

For Questions, Comments, Newest Version, or Corrections contact
Bobby Rafuse: at metal_music69@hotmail.com

..  - palm mute          /  - slide up to
 \  - slide down to      ~  - vibrato
 h  - hammer on          b  - bend
 p  - pull off            Suffixes for bend
                          ph - pinch harmonic
                           f - full bend    h - half bend
*  - see comment           r - release      t - tap bend
X  - percussion mute       ~ - vibrato bend
@  - slight palm mute     () - ghost note, sustained note
#(tr#) - trill notes       x\ - pick scrape

Tune Gtr to Bb


*Note* The timing on the tab may not be 100Ćorrect

Riff A
|----|
|-7--|
|-0--|

Play Riff A 4x's


Riff B
|----------|
|-4--8--7--|
|-2--6--5--|
pm.  .  .

Play Riff B 4x's


Fill 1
|----|
|-7--|
|-*--|

*tremolo pick this note


Riff C (not totally sure about this riff but sounds good enough to me)
|--------------------------------------------------|
|---------------------------------------4-3-2------|
|-------------------4-3-2---------------------4-3--|
|---4-3---------------------4-3--------------------|
|-2-----5-0-0-2-0-0-------2-----5-0-0-2------------|
pm. . . . . . . . .       . . . . . . .

Play Riff C 4x's


Riff D1
|-------------------------------------------------------------|
|-7-----------------4-5-4--9\8--5-4-11--5-4--*--*--*----------|
|-0---/10-9-6(tr9)--2-3-2--7\6--3-2--9--3-2--7--8--4--1(tr4)--|
pm                  . . .       . .     . .

*tremolo pick notes


Riff D2
|------------------------------------------------|
|-7----------------------------------------------|
|-0---/10-9-6(tr9)--/6-4-3-/7-6-3-/6~--3-2(tr5)--|


Riff E
|---------ph--|
|---4-3---2b--|
|-2-----5-----|
pm. . . .

Play Riff E 4x's

Play Riff C 4x's
Then play Riff D1
Then play Riff D2


Riff D3
|-------------------------------------------------|
|-7-----------------------------------------------|
|-0---/10-9-6(tr9)-5(tr8)-4(tr7)-/6--3-2(tr5)-/6--|


Play Riff A 4x's
Then play Riff B 4x's


Fill 2
|--------------| Gtr.
|-7------------|  1
|-*------------|
|        |
|--------------| Gtr.
|-7---10---13--|  2
|-*----*----*--|

*tremolo pick notes


Riff F (not sure about this riff)
|---------------------------|
|------7/10-8---------------|
|-7/10-5/8--6-7--5--4--4-4--|
|-5/8---------5--3--2--2-2--|
pm               .  .  . .

Play Riff F 4x's


Riff G
|------------------------------------------ph--|
|------------------------------------------5b--|
|--------------------5-------------------------|
|-7----------7---5h7----7----------7---5h7-----|
|-*--3(tr6)--*----------*--3(tr6)--*-----------|

* tremolo pick notes

Play Riff G 2x's

Play Riff F 4x's
Then play Riff G 2x's


Riff H
|------------------------|
|-----5-------------ph---|
|-7---3---5---4--3--2~~--|
|-5-0---0-3-0-2--1-------|
pm  .   .   .

Play Riff H 4x's

Play Riff E 4x's
Then play Riff H 4x's
Then play Riff E 16x's


Riff I (not totally sure about this riff)
|-------------------------------------------------------------------|
|--------------------------------------------------4-3-2------------|
|-----------------4-3-2----------------------------------4-3-2------|
|---4-3-----------------4-3-2--------4-3-----------------------4-3--|
|-2-----5-0-0-2-0-------------4-3--2-----5-0-0-2-0------------------|
pm. . . . . . . . . . . . . . . .  . . . . . . . . . . . . . . . .

Play Riff I 2x's


Play Riff B 2x's
Then play Riff F 2x's
Then Play Riff G 1x
Then play Riff F 2x's
Then play Riff G 1x


Riff J1
|-----------------------|
|----/10-10-----/11-11--|
|-4----------4----------|
|-*----------*----------|

*Tremolo pick notes

Play Riff J1 2x's


Riff J2
|---------------------------------------------------------------|
|----/10-10-----/11-11-----/10-10-----/11-11-11-11-11-11-11-11--| Gtr.
|-4----------4----------4----------4----------------------------|  1
|-*----------*----------*----------*----------------------------|
| |
|---------------------------------------------------------------|
|----/13-13-----/14-14-----/13-13-----/14-14-14-14-14-14-14-14--|
|-4----------4----------4----------4----------------------------|
|-*----------*----------*----------*----------------------------|

*Tremolo pick notes

Play Riff D1
Then play Riff D2
Then play Riff D3


end on
|-----|
|-4~--|
|-----|


end of song

  Visit MetalTabs.com for more metal tablature

bottom separator

Contact Us | Privacy Policy | Disclaimer
Copyright © 2001-2014 MetalTabs.com. All Rights Reserved.