top separator

Home

Forum

What's New

Submit a Tab

FAQ

Links

Contact Us

Link to Us

MetalTabs.com logo

Bands

0-9

A

B

C

D

E

F

G

H

I

J

K

L

M

N

O

P

Q

R

S

T

U

V

W

X

Y

Z

Search

What

Where
 

Eve's Bringer - "Unrestrained" Guitar Tab

Plain Text Version
More Eve's Bringer Tabs

Hits: 4298
Rated: 5.00 out of 5 (2 votes)
Updated: 2002-05-27 11:47:32

 

By:

death8699

sendpm.gif

email.gif

Important note
This tab is available online because we obtained explicit permission from Eve's Bringer or their label.


#----------------------------------PLEASE NOTE---------------------------------#
#This file is the author's own work and represents their interpretation of the #
#song. You may only use this file for private study, scholarship, or research. #
#Unless specified otherwise, this is NOT an official tab from the band members.#
#------------------------------------------------------------------------------#

  Visit MetalTabs.com for more metal tablature
  
                       EVE'S BRINGER - UNRESTRAINED
                        From the Demo IN THE END...

                       Version 2.0 - SEPTEMBER 2001

Transcribed by: death8699
Corrected by: Johnny (opiatedtool@hotmail.com)

For Questions, Comments, Newest Version, or Corrections contact
 death8699: at archenemies@aol.com

Check Out DEATH8699.COM With More Transcriptions at:
 http://www.death8699.com

.  - palm mute                  /  - slide up to
\  - slide down to              ~  - vibrato
h  - hammer on                  b  - bend
p  - pull off                   Suffixes for bend
ph - pinch harmonic             f - full bend    h - half bend
*  - see comment                r - release      t - tap bend
X  - percussion mute            ~ - vibrato bend
@  - slight palm mute           () - ghost note, sustained note

Tune Gtr to C

Note: any weird spacing is just to line up both parts, the riff isn't played oddly

UNRESTRAINED

Riff A                                         Play 4x
|----------------------------------------------------|
|----------------------------------------------------|
|----------------------------------------------------|Gtrs
|-2-2-2-5-5-5-5-----------2-2-2-5-5-5-5--------------|I&II
|-0-0-0-3-3-3-3-5-2-------0-0-0-3-3-3-3-5-2--2--2--2-|
|---------------3-0---------------------3-0--0--0--0-|


Riff A.1                                                                   Play 2x
|--------------------------------------------------------------------------------|
|--------------------------------------------------------------------------------|
|--------------------------------------------------------------------------------|Gtrs
|-2-2-2-5-5-5-5------------------------------2-2-2-5-5-5-5-----------------------|I&II
|-0-0-0-3-3-3-3-5-2-2-2-2-2-5---5---5--------0-0-0-3-3-3-3-5-2-2-2-2--2---5--5-5-|
|---------------3-0-0-0-0-0-3---3---3----------------------3-0-0-0-0--0---3--3-3-|
|
|
|--------------------------------------------------------------------------------|
|--------------------------------------------------------------------------------|
|------------------------------------------------------------------------9"------|Gtr
|-7"----10"-----------------9-7h9p7----------7"----10"---------------7"9"--10"9"-|III
|--------------10"-7"---------------10--------------------10"-7"9"10"------------|
|--------------------------------------------------------------------------------|


Riff B                                     Play 2x
|------------------------------------------------|
|------------------------------------------------|
|------------------------------------------------|Gtrs
|------------------------------------------------|I&II
|-7---3---10---7----5----7---3---5-5-5-5-5-5-5-5-|
|-5---1---8----5----3----5---1---3-3-3-3-3-3-3-3-|
                                 . . . . . . . .


Riff B.1                                                         Play 2x
|----------------------------------------------------------------------|
|----------------------------------------------------------------------|
|----------------------------------------------------------------------|Gtrs
|----------------------------------------------------------------------|I&II
|-7---3--------------10---5-------------7---3----------5-5-5-5-5-5-5-5-|
|-5---1--------------8----3-------------5---1----------3-3-3-3-3-3-3-3-|
|                                                      . . . . . . . .
|                                                          ____________ ________________
|                                                         |1.          |2.              |
|----------------------------------------------------------------------|----------------|
|----------------------------------------------------------------------|----------------|
|-----9"7"-9"p7"----------7"5"-7"p5"--------9"-7"9"10"-9"--7"-------7"-|-12"-10"-9"-10"-|Gtr
|-7"------------10"--5"-------------9"--7"---------------------10"-----|----------------|III
|----------------------------------------------------------------------|----------------|
|----------------------------------------------------------------------|----------------|


Riff A 2x
Riff A + A.1 2x

                                  ______________ _____________________
Riff C.1 (clean)(strum)          |1-5.          |6.                   |
|-0----------0----------0----------0----------0-|---------------------|
|-0----------0----------0----------0----------0-|---------------------|Gtr I
|-9----------4----------5----------0----------0-|---------------------|
|-7----------5----------7----------5----------7-|-5--5-5-5-5--7--5--4-|
|----------------------------------3----------5-|-3--3-3-3-3--5--3--2-|
|-----------------------------------------------|---------------------|
                                                     . . . .

Riff C.2 (electric)                                                         Play 6x
|---------------------------------------------------------------------------------|
|---------------------------------------------------------------------------------|
|-9---------9---------4---------4---------5---------5-----------------------------|Gtrs
|-7---------7---------5---------5---------7---------7---------5--5-5-5-5--7--5--4-|I&II
|---0-0-0-0---0-0-0-0---0-0-0-0---0-0-0-0---0-0-0-0---0-0-0-0-3--3-3-3-3--5--4--2-|
|---------------------------------------------------------------------------------|
    . . . .   . . . .   . . . .   . . . .   . . . .   . . . .    . . . .

Solo over C.1 + C.2
Riff A 2x
Riff A + A.1 2x
End on A5

Check Out DEATH8699.COM With More Transcriptions at:
 http://www.death8699.com

  Visit MetalTabs.com for more metal tablature

bottom separator

Contact Us | Privacy Policy | Disclaimer | Legal Notice
Copyright © 2001-2014 MetalTabs.com. All Rights Reserved.