top separator

Home

Forum

What's New

Submit a Tab

FAQ

Links

Contact Us

Link to Us

MetalTabs.com logo

Bands

0-9

A

B

C

D

E

F

G

H

I

J

K

L

M

N

O

P

Q

R

S

T

U

V

W

X

Y

Z

Search

What

Where
 

Eve's Bringer - "Still Breath" Guitar Tab

Plain Text Version
More Eve's Bringer Tabs

Hits: 4137
Rated: 3.40 out of 5 (5 votes)
Updated: 2002-05-27 11:47:10

 

By:

death8699

sendpm.gif

email.gif

Important note
This tab is available online because we obtained explicit permission from Eve's Bringer or their label.


#----------------------------------PLEASE NOTE---------------------------------#
#This file is the author's own work and represents their interpretation of the #
#song. You may only use this file for private study, scholarship, or research. #
#Unless specified otherwise, this is NOT an official tab from the band members.#
#------------------------------------------------------------------------------#

  Visit MetalTabs.com for more metal tablature
  
                    EVE'S BRINGER - STILL BREATH
                     From the Demo IN THE END...

                      Version 3.0 - AUGUST 2001

Transcribed by: death8699
Corrected by: Johnny Dove (opiatedtool@hotmail.com)

For Questions, Comments, Newest Version, or Corrections contact
 death8699: at archenemies@aol.com

Check Out DEATH8699.COM With More Transcriptions at:
 http://www.death8699.com

..  - palm mute          /  - slide up to
\  - slide down to      ~  - vibrato
h  - hammer on          b  - bend
p  - pull off            Suffixes for bend
                          ph - pinch harmonic
                           f - full bend    h - half bend
*  - see comment           r - release      t - tap bend
X  - percussion mute       ~ - vibrato bend
@  - slight palm mute     () - ghost note, sustained note


Tune Gtr to C

STILL BREATH

Riff A.1                                                   Play 2 times
|---------------------------------------------------------------------|
|---------------------------------------------------------------------|
|---------------------------------------------------------------------|Gtr I
|-----------------9---7---9p7-----------------------------------------|
|----7---10---9---------------10p9----7---10---9p7-------7h9p10p9p7h9-|
|-00---0----0---0---0---0----------88---8----8-----10-10--------------|
| ..   .    .   .   .   .          ..   .    .      . .               |
|                                                                     |
|---------------------------------------------------------------------|
|---------------------------------------------------------------------|
|---------------------------------------------------------------------|Gtr II
|---------------------------------------------------------------------|
|-22-------------------------------77---------------9--9--------------|
|-00-------------------------------88--------------10-10--------------|
  ..                               ..               . .


Riff A.2                                                   Play 4 times
|---------------------------------------------------------------------|
|---------------------------------------------------------------------|
|---------------------------------------------------------------------|Gtrs I
|-----------------9---7---9p7-----------------------------------------|  & II
|----7---10---9---------------10p9----7---10---9p7-------7h9p10p9p7h9-|
|-00---0----0---0---0---0----------88---8----8-----10-10--------------|


Riff B                                Play 4 times
|------------------------------------------------|
|--------------------------------3---------------|
|---4-2---5-424-2h4p2------4-2-----545-4h5p4-2---|Gtr I
|-2-----5-------------54-2-----5---------------5-|
|------------------------------------------------|
|------------------------------------------------|
|                                                |
|                                                |
|------------------------------------------------|
|------------------------------------------------|
|------------------------------------------------|Gtr II
|-----------2----------------------2-------------|
|---2-3-2-------3-----2----2-3-2-----------------|
|-0-------3--------------0-------3-----3-----2---|


Riff A 6 times
Riff B 4 times


Riff C.1                                     Play 5 times
|-------------------------------------------------------|
|-------------------------------------------------------|
|-------------------------------------------------------|Gtr I
|-------------------------------------------------------|
|---------------------------------7"-----10"------------|
|-5"---7"-8"-10"-8"--5"-5"------------------------------|
|                                                       |
|                                                       |
|-------------------------------------------------------|
|-------------------------------------------------------|
|-------------------------------------------------------|Gtr II
|---------------------------------10"-9"-12"-10"-9"-10"-|
|-7"---5"-10"-9"-7"--5"-7"--7"-5"-----------------------|
|-------------------------------------------------------|


Riff C.2                   Play 1 time
|------------------------------------|
|------------------------------------|
|------------------------------------|Gtr I
|------------------------------------|
|---------------------------7-7--9-9-|
|-5"---7"-8"-10"-8"--5"-5"--5-5--7-7-|
|                                    |
|                                    |
|------------------------------------|
|------------------------------------|
|------------------------------------|Gtr II
|------------------------------------|
|-7"---5"-10"-9"-7"--5"-7"--7-7--9-9-|
|---------------------------5-5--7-7-|


Play Riff A 6 times
Play Riff B 4 times


Riff D.1                                 Play 2 times
|---------------------------------------------------|
|---------------------------------------------------|
|---------------------------------------------------|Gtr I
|---------------------------------------------------|
|-22-----------22----------22-----------22----------|
|-00-----------00----------00-----------00----------|
| ..           ..          ..           ..          |
|                                                   |
|---------------------------------------------------|
|---------------------------------------------------|
|---------------------------------------------------|Gtr II
|---------------------------------------------------|
|----7"-10"-9"----7"-5"-7"----7"-10"-9"----3"-5"-7"-|
|---------------------------------------------------|


Riff D.2                                 Play 4 times
|---------------------------------------------------|
|---------------------------------------------------|
|---------------------------------------------------|Gtr I
|---------------------------------------------------|
|----5"-9"-7"-----5"-4"-5"----5"-9"-7"-----2"-4"-5"-|
|-0"-----------0"----------0"-----------0"----------|
|                                                   |
|                                                   |
|---------------------------------------------------|
|---------------------------------------------------|
|---------------------------------------------------|Gtr II
|---------------------------------------------------|
|----7"-10"-9"----7"-5"-7"----7"-10"-9"----3"-5"-7"-|
|-0"-----------0"----------0"-----------0"----------|


Play Riff A 6 times
Play Riff B 4 times


Riff E  Play 1 time
|------------|
|------------|
|------------|Gtr I
|-4----------|
|-2-----5--4-|
|-------3--2-|
        .  .


Riff F (clean)              1.--------|2.---------------|
|-------------------------------------|-----------------|
|-------------------------------------|-----------------|
|-------------------------------------|-----------------|
|-----5------9-----7-----5----4-----5-|---2-----4-----5-|
|---7----/10-----9-----7----5-----7---|-3-----5-----7---|
|-0------------0-----0----------0-----|-----0-----0-----|
Gtr II plays twice, then both Gtrs play twice more


Riff G (distorted)          1.--------|2.---------------|
|-------------------------------------|-----------------|
|-------------------------------------|-----------------|Gtrs I
|-------------------------------------|-----------------|  & II
|-----5------9-----7-----5----4-----5-|---2-----4-----5-|
|---7----/10-----9-----7----5-----7---|-3-----5-----7---|
|-0------------0-----0----------0-----|-----0-----0-----|
  .            .     .          .          .     .


Play 3 more times


Riff H                                    Play 6 times
|----------------------------------------------------|
|----------------------------------------------------|
|----------------------------------------------------|Gtr I
|----9"7"5"--5"7"9"10"9"-----9"7"5"---4"-------0"----|
|----------------------------------------------------|
|-0"----------------------0"-------------------------|
|                                                    |
|                                                    |
|----------------------------------------------------|
|----------------------------------------------------|
|----------------------------------------------------|Gtr II
|----------------------------------------------------|
|----7"5"7"--10"9"7"5"7"-----7"5"7"------5"-------2"-|
|-0"----------------------0"----------3"----3"-2"----|


Play Riff B 2 times
Play Riff D 4 times
End.


Check Out DEATH8699.COM With More Transcriptions at:
 http://www.death8699.com

  Visit MetalTabs.com for more metal tablature

bottom separator

Contact Us | Privacy Policy | Disclaimer | Legal Notice
Copyright © 2001-2014 MetalTabs.com. All Rights Reserved.