top separator

Home

Forum

What's New

Submit a Tab

FAQ

Links

Contact Us

Link to Us

MuSpy.com

MetalTabs.com logo

Bands

0-9

A

B

C

D

E

F

G

H

I

J

K

L

M

N

O

P

Q

R

S

T

U

V

W

X

Y

Z

Search

What

Where
 

The Haunted - "Hate Song" Guitar Tab

Plain Text Version
More The Haunted Tabs

Hits: 12281
Rated: 4.71 out of 5 (14 votes)
Updated: 2001-09-22 04:07:51

 

Important note
This tab is available online because we obtained explicit permission from The Haunted or their label.


#----------------------------------PLEASE NOTE---------------------------------#
#This file is the author's own work and represents their interpretation of the #
#song. You may only use this file for private study, scholarship, or research. #
#Unless specified otherwise, this is NOT an official tab from the band members.#
#------------------------------------------------------------------------------#

  Visit MetalTabs.com for more metal tablature
  
                            THE HAUNTED - HATE SONG
                           From the Album THE HAUNTED
                         Copyright 1998 Earache Records
                           Version 2.2 - SEPTEMBER 2001

Originally transcribed by:LALITH VIPULANANTHAN (Count Zero) lv1@ic.ac.uk
Version 2.0 transcribed by: Mikko Leimu
Version 2.1 changes made by: Anders Bjorler (THE HAUNTED) / author
Verison 2.2 changes made by: Anders Bjorler (THE HAUNTED) / author

For Questions, Comments, Newest Version, or Corrections contact
Mikko at: kt9191@orion.pspt.fi
or: anders / dahaunted@hotmail.com

.  - palm mute                /  - slide up to
\  - slide down to            ~  - vibrato
h  - hammer on                b  - bend
p  - pull off                 Suffixes for bend
t  - tap with fin                  f - full bend    h - half bend
*  - see comment                   r - release      t - tap bend
X  - percussion mute               ~ - vibrato bend
"  - tremolo note             () - ghost note, sustained note


Tuning: Eb  (Eb,Ab,Db,Gb,Bb,eb)

The Haunted - Hate Song

Intro
|-----------------------------------|
|-----------------------------------|
|-----------------------------------|Gtr 1
|-----------------------------------|
|--4---4---4---5---4---4---4--8-----|
|-02-002-002-003-002-002-002-06-----|
| .  ..  ..  ..  ..  ..  ..  .      |
|                                   |
|-----------------------------------|
|-----------------------------------|
|-----------------------------------|Gtr 2
|-----------------------------------|
|-2x-22x-22x-22x-22x-22x-22x-28-----|
|-0x-00x-00x-00x-00x-00x-00x-06-----|


|-----------------------------------|
|-----------------------------------|
|-----------------------------------|Gtrs 1+2
|-----------------------------------|
|-2x-22x-22x-22x-22x-22x-8---8------|
|-0x-00x-00x-00x-00x-00x-60006------|
                          ...

Riff A1 (verse)
|------------------------------------------|
|------------------------------------------|
|--------------------------------1010\7/10-|Gtrs 1+2
|------------------------------------------|
|------------------3332---5552---8-8-\5/8--|
|-00-000-000-000-0-111000-333000-----------|
  .. ... ... ... .     ..     ..

|-----------------------------------------|
|-----------------------------------------|
|--9--9-9---9--9-9--1010109---7774--------|Gtrs 1+2
|-----------------------------------------|
|--7--7-7---7--7-7--8-8-8-7---5552---32---|
|-0-00-0---0-00-0----------00-----00---53-|
  . .. .   . .. .          ..     .. ....

Repeat A1


Riff B (pre-chorus)
|---------------------------------------------------------------|
|---------------------------------------------------------------|
|-----------*-------------*-------------*-----------------------|Gtrs1+2
|-------------7\\\\4--------8\\\\2--------7\\\\4----------------|
|---------------------------------------------------------------|
|-2222333322325\\\\2333322326\\\\4333322325\\\\253333222263-----|
                                                          .
* = short 6/8 tempo triplet between 2/3/2:nd fret
(I don't know how to write it ?)

Repeat B


Riff A2
|----------------------------------------|
|----------------------------------------|
|------------------------------1010\7/10-|Gtrs 1+2
|----------------------------------------|
|------------------3--2--5--2--8-8-\5/8--|
|-00-000-000-000-0-1--0--3--0------------|
  .. ... ... ... .

|----------------------------------------|
|----------------------------------------|
|--9--9-9--9--9-9--1010109---7774--------|Gtrs 1+2
|----------------------------------------|
|--7--7-7--7--7-7--8-8-8-7---5552---32---|
|-0-00-0--0-00-0-0--------00-----00---53-|
  . .. .  . .. . .        ..     .. ....


Repeat B twice


Riff C1 (chorus)
|--------------------------------------|--------|
|--------------------------------------|--------|
|--------------------------------------|-*------|Gtrs 1+2
|----------------7-9-99----------------|--------|
|-22--22--44-2-2-5h7-77-22--22--44-2-2-|-320----|
|-00--33--66-0-0--------00--33--66-0-0-|----320-|
               .                     .
* = the ending, change to 6/8


Ending Riff C1
|----------|
|----------|
|----------|Gtrs 1+2
|----------|
|-22-22-22-|
|-00-33-00-|


Bridge
|---------------------|
|---------------------|
|---------------------|Gtrs 1+2
|---------------------|
|-2---------------(2)-|
|-0---------------(0)-|


|--------------------------------------------|
|--------------------------------------------|
|--9--9-9---9--9-9--12-12-12-12-12-12-12-----|Gtr 1
|--------------------------------------------|
|--7--7-7---7--7-7--10-10-10-10-10-10-10-----|
|-0-00-0---0-00-0----------------------------|
| . .. .   . .. .                            |
|                                            |
|--------------------------------------------|
|--------------------------------------------|
|--9--9-9---9--9-9--12-12-12-12--------------|Gtr 2
|-------------------------------/5--5--5-----|
|--7--7-7---7--7-7--10-10-10-10--------------|
|-0-00-0---0-00-0---------------/3--3--3-----|
  . .. .   . .. .

Riff A3
|------------------------------------|
|------------------------------------|
|--------------------------1010\7/10-|Gtrs 1+2
|------------------------------------|
|-2----------3332---5552---8-8-\5/8--|
|-0----------111000-333000-----------|
                 ..     ..

|----------------------------------------|
|----------------------------------------|
|--9--9-9---9--9-9-1010109---7774--------|Gtrs 1+2
|----------------------------------------|
|--7--7-7---7--7-7--8-8-87---5552---32---|
|-0-00-0---0-00-0---------00-----00---53-|
  . .. .   . .. .         ..     .. ....

Repaeat A1
Repeat B 2x
Repeat C1

Ending Riff C1
|--------------------|
|--------------------|
|--------------------|Gtrs 1+2
|--------------------|
|-22-22-22-22-22-----|
|-00-33-00-33-00-012-|
     ..    ..

Riff D1 play 4 times
|------------------------------------|
|------------------------------------|
|------------------------------------|Gtr 1
|--5--4------------5--4--------6-----|
|-------6-5-4-----------6-5-4-4-4----|
|-3-33-3-3-3-363543-33-3-3-3-3---5---|
|   .. . . . . .    .. . . . .       |
|                                    |
|------------------------------------|
|------------------------------------|
|------------------------------------|Gtr 1
|--5--4------------------------6-----|
|-------6-5-4------5--4-6-5-4-4-4----|
|-3-33-3-3-3-363543-33-3-3-3-3---5---|
|   .. . . . . .    .. . . . .       |

Add this once as a transition between the 2:nd and 3:rd part:
|--------|
|--------|
|--------|Both Gtrs
|--6-----|
|-4-4----|
|----5---|


Solo Riff 1 (6/8) play once
|----------------------------------|
|----------------------------------|
|----------------------------------|
|----------------------------------|
|----------------------------------|
|-222320222520222320222520---------|

Solo Riff 2 (4/4) play once
|----------------------------------|
|----------------------------------|
|----------------------------------|
|----------------------------------|
|-2202023-2202023-2202023-2202023--|
|----------------------------------|

Play solo riff 1 once
Play solo riff 2 3/4 times

and cut the ending on the last note
and ring out like this:

|-----------------------------------|
|-----------------------------------|
|-----5~----------------------------|
|-----------------------------------|
|-22023~-r-i-n-g---o-u-t-!----------|
|-----------------------------------|

---------------------------------------------------------------------------------

SOLO on part 1:

//I have no clue (ANDERS) !! //

b=bend
N.H =natural harmonic
~= vibrato with bar
s= scoop tremolo bar
d=whammy bar dive


|----------------------------------|
|----------------------------------|
|--11"-12"-11"-9"-11"-12"-16"------|
|----------------------------------|
|----------------------------------|
|----------------------------------|

   N.H          N.H
|--s19----------------------|
|---------------19~~d-------|
|---------------------------|
|---------------------------|
|---------------------------|
|---------------------------|

                                  N.H       N.H
|---------------------------------s19--------------|
|--7------8-------12------11----------------19~~d--|
|--9fb----10fb----14fb----13fb---------------------|
|--------------------------------------------------|
|--------------------------------------------------|
|--------------------------------------------------|

---------------------------------------------------------------------------------

THE FOLLOWING WHEN solo part 2 rings out:
     *
|--------------------------------------------|
|-12-t13--10-t13--8-t13--7-t13--5-t13--4-t13-|
|--------------------------------------------|
|--------------------------------------------|
|--------------------------------------------|
|--------------------------------------------|

  * Tap from 13th fret with the edge of pick very fast


Outro
|---------------------------------------|
|---------------------------------------|
|---------------------------------------|Gtrs 1+2
|---------------------------------------|
|---------------------------------------|
|-00-000-000-000-000-000-000-0--653056--|
  .. ... ... ... ... ... ... .  .....


|-------------------------------------------|
|-------------------------------------------|
|-------------------------------------------|Gtrs 1+2
|-------------------------------------------|
|------------------------------------3------|
|-00-000-000-0-653056-00-000-0-653056-63056-|
  .. ... ... . ...... .. ... . ............

|--------------------------------------------|
|--------------------------------------------|
|--------------------------------------------|Gtrs 1+2
|------------------------------------------8-|
|--------------------------------------------|
|-00-0-653056-00-0-653056-00-0-653056-00-0-6-|
  .. . ...... .. . ...... .. . ...... .. .

|---------------------------------------------|
|---------------------------------------------|
|---------------------------------------------|Gtrs 1+2
|------------------------------------------54-|
|---------------------------------------------|
|-00-0-653056-00-0-653056-00-0-653056-00-0-32-|
  .. . ...... .. . ...... .. . ...... .. .

|--------------------------------------------|
|--------------------------------------------|
|-----------------------------------------3--|Gtrs 1+2
|--------5\4--------8\7--------5\4--------3--|
|-----------------------------------------1--|
|-00-010-3\2-00-010-6\5-00-010-3\2-00-010----|
  .. ...     .. ...     .. ...     .. ...

|--------------------------------------------|
|--------------------------------------------|
|--------------------------------------------|Gtrs 1+2
|--------------------------------------------|
|--------1--------4--------1----4\4----13-2x-|
|-00-010-3-00-010-6-00-010-3-00-6\5-00-33-0x-|
  .. ...   .. ...   .. ...   ..     ..

  Visit MetalTabs.com for more metal tablature

bottom separator

Contact Us | Privacy Policy | Disclaimer | Legal Notice
Copyright © 2001-2014 MetalTabs.com. All Rights Reserved.