top separator

Home

Forum

What's New

Submit a Tab

FAQ

Links

Contact Us

Link to Us

MetalTabs.com logo

Bands

0-9

A

B

C

D

E

F

G

H

I

J

K

L

M

N

O

P

Q

R

S

T

U

V

W

X

Y

Z

Search

What

Where
 

The Haunted - "Chasm" Guitar Tab

Plain Text Version
More The Haunted Tabs

Hits: 6122
Rated: 5.00 out of 5 (4 votes)
Updated: 2001-09-22 04:07:15

 

Important note
This tab is available online because we obtained explicit permission from The Haunted or their label.


#----------------------------------PLEASE NOTE---------------------------------#
#This file is the author's own work and represents their interpretation of the #
#song. You may only use this file for private study, scholarship, or research. #
#Unless specified otherwise, this is NOT an official tab from the band members.#
#------------------------------------------------------------------------------#

  Visit MetalTabs.com for more metal tablature
  
	THE HAUNTED - CHASM
	From the Album "THE HAUNTED"
	1998 Earache Records


Transcribed by: Anders Bjorler
Tabversion 1.0 - AUGUST 2000
Thanks to : Scott King for some pointers !!!!

Notes:

Well, first off : I am not too familiar writing tabs !!!!!
There are no exact bars that measure time, but if you listen to the song
with the help from these tabs, there should be no problem figuring it out.
I saw some HAUNTED songs tabbed on the internet that wasn't very accurate,
so
i'm trying to give you more correct versions............anders !!!!!

If you have any q's mail 'em to me: dahaunted@hotmail.com




.  - palm mute                  /  - slide up to
\  - slide down to              ~  - vibrato
h  - hammer on                  b  - bend
p  - pull off                        Suffixes for bend
*  - see comment
X  - percussion mute
@  - slight palm mute           # - ghost note, sustained note
d  - downstroke
u  - upstroke
t  - triplets
^  - natural harmonics


TUNING: D# (everystring down 0.5 steps)

-----------------------------------------------------------------------

Opening:
|-------------|
|-------------|
|-------------|
|-4-----------|
|-------------|both guitars
|-2-----------|ring out with feedback two bars (4/4)


------------------------------------------------------------------------

RIFF 1 (PLAY THREE TIMES)
|--------------------------------------------|
|--------------------------------------------|
|--------------------------------------------|GTR 1+2
|--------------------------------------------|
|-----------------2------------5--- hp--hp---|
|-2~0-2~0-2~0-2~0--3232~0-2~0-2--0-653-653---|
    .   .   .   . ....  .   .

cont.
|--------------------------------------------|
|--------------------------------------------|
|--------------------------------------------|GTR 1+2
|--------------------------------------------|
|-----------------2------------5--- hp--hp---|
|-2~0-2~0-2~0-2~0--3232~0-2~0-2--0-320-320---|
    .   .   .   . ....  .   .


/// THIRD TIME DIFFERENT ENDING :

|--------------------------------------------|
|--------------------------------------------|
|------------------------------3-------------|GTR 1+2
|------------------------------3-------------|
|-----------------2----4-2-4-2-1-------------|
|-2~0-2~0-2~0-2~0--323-2-0-2-0---------------|
    .   .   .   . ....   .   .

////

---------------------------------------------------------------------

RIFF 2a (just in the break) play two times
|-------------------------------------------------|
|-------------------------------------------------|
|-------------------------------------------------|
|-------------------------------------------------|GUITAR 1
|----------2--1---5-*-------------2--1----5-4-5-4-|
|-2-0-2~-0--32-320-320---2-0-2~-0--32-320-3-2-3-2-|
| . .    .  .. ... .     . .    .
|
|   * - this note is actually a fast triplet of the notes 2h3p2
|
|-------------------------------------------------|
|-------------------------------------------------|
|-*---------------------------------------$-------|GUITAR 2
|-4-----------------------------------------------|
|-4---------------------------------------5-4-5-4-|
|-2---------------------------------------3-2-3-2-|

* First time = short
  second time = ring out 'til $

---------------------------------------------------------------------

RIFF 2b (verse) play one whole time
|-----------------------------------------------------|
|-----------------------------------------------------|
|-----------------------------------------------------|
|-----------------------------------------------------|GTR 1+2
|----------2--1---5-*-------------2--1-----hp-hh-hp---|
|-2-0-2~-0--32-320-320---2-0-2~-0--32-320-3200233202~-|
  . .    .  .. ... .     . .    .  .. ...

  * - this note is actually a fast triplet of the notes 2,3,2

cont.
|------------------------------------|
|------------------------------------|
|------------------------------------|
|------------------------------------|GTR 1+2
|-2--1---5-*-------------2--1----5-4-|
|--32-320-320---2-0-2~-0--32-320-3-2-|
   .. ... .     . .    .  .. ...

  * - this note is actually a fast triplet of the notes 2,3,2


cont.
|-------------------------------------------------|
|-------------------------------------------------|
|-------------------------------------------------|GTR 1+2
|----------2--1---5-*-------------2--1------------|
|-2-0-2~-0--32-320-320---2-0-2~-0--32-320-3-2-0---|
|-----------------------------------------------3-|
  . . .  . ...........   . . .  . .......

* - this note is actually a fast triplet of the notes 2,3,2


cont.
|---------------------------------------------|
|---------------------------------------------|
|---------------------------------------------|
|---------------------------------------------|GTR 1+2
|----------2--1---5-*-------------2--1----5-4-|
|-2-0-2~-0--32-320-320---2-0-2~-0--32-320-3-2-|
  . .    .  .. ... .     . .    .  .. ...

---------------------------------------------------------------------

RIFF 3 (chorus) PLAY ONE WHOLE TIME
|-----------------------------------------------------|
|-----------------------------------------------------|
|----9-7-9-9/10-10~-10/13-13~-----9-7-9---------------|
|----------------------------------------10-----------|GTR 1+2
|----7-5-7-7/8--8~--8/11--11~-----7-5-7--8--8-8-5-7-7-|
|-00--0-0-0-------0----------0-00--0-0-0----6-6-3-5-5-|
  ..  . . .       .          . ..  . . .

cont.
|-----------------------------------------------------|
|-----------------------------------------------------|
|----9-7-9-9/10-10~-10/13-13~-----9-7-9---------------|
|----------------------------------------3------5-----|GTR 1+2
|----7-5-7-7/8--8~--8/11--11~-----7-5-7--3------5-----|
|-00--0-0-0-------0----------0-00--0-0-0-1------3-----|
  ..  . . .       .          . ..  . . .


---------------------------------------------------------------------

PLAY RIFF 2b ONE WHOLE TIME
PLAY RIFF 3 TWO WHOLE TIMES with the exception

- on the second time Guitar 1 only plays:
|-..--..--..--..--..--..------------------------------|
|-..--..--..--..--..--..------------------------------|
|-..--..--..--..--..--..------------------------------|
|-..--..--..--..--..--..-----------------3------5-----|
|-..--..--..--..--..--..-----------------3------5-----|
|-00--00--00--00--00--00-----------------1------3-----|
e.t.c....and end with the same chords...


---------------------------------------------------------------------

RIFF 4 (soloriff) PLAY TWO TIMES
|-------------------------------------|
|-------------------------------------|
|-------------------------------------|GTR 1
|-----------------5-------------------|
|-----------------3-------------------|
|-2-232-252-232-25--232-252-0(2)32353-|

---------------------------------------------------------------------

RIFF 5 (in between of the solos) PLAY TWO TIMES
|----------------------------------------|
|----------------------------------------|
|----------------------------------------|
|--------5---8-----------5----------5----|GTR 1+2
|----87---7---7--5-7-87---7-578-7-8---8--|
|-000--00--00--00---0--00----------------|


----------------------------------------------------------------------

PLAY RIFF 4 TWO TIMES
PLAY RIFF 5 TWO TIMES /but different ending:

|----------------------------------------|
|----------------------------------------|
|----------------------------------------|
|--------5---8-----------5---------------|GTR 1+2
|----87---7---7--5-7-87---7------23------|
|-000--00--00--00---0--00--000-35--------|


----------------------------------------------------------------------

PLAY RIFF 2b ONE WHOLE TIME


PLAY RIFF 3 ALMOST TWO WHOLE TIMES (one 1/4 note shorter, but with the same
chords)

- on the second time Guitar 1 only plays:
|-..--..--..--..--..--..------------------------------|
|-..--..--..--..--..--..------------------------------|
|-..--..--..--..--..--..------------------------------|
|-..--..--..--..--..--..------------------------------|
|-..--..--..--..--..--..------------------------------|
|-00--00--00--00--00--00------------------------------|

e.t.c.......you get the hang of it !!!!!!!

----------------------------------------------------------------------

PLAY RIFF 1 TWO TIMES

----------------------------------------------------------------------

ENDING :          ^^^^
|------------------5555----------------------|
|------------------5555--------------------*-|
|------------------5555--------------------3-|
|------------------5555--------------------3-|
|-4-2-4-----4-2-4--^^^^--4-2-4-----4-2-4-2-1-|
|-2-0-2-----2-0-2--------2-0-2-----2-0-2-0---|
    .         .            .         .   @

* ring out

----------------------------------------------------------------------

SOLO (ON RIFF 4): (first round is just noise, i won't transcribe it !!!!)
2:nd time:
                         **=14 consists of triplet:14h15p14
|------------------------**----------|
|-19~--------15-14~----15141215------|
|-21b23~------------------------11~\-|GTR 2
|------------------------------------|
|------------------------------------|
|------------------------------------|


cont. // the following part is played:
        Do a hammer on with the pick
        on A = the 17 fret on the light E-string
        on B = the 17 fret on the B-string //

        3 "pick-hammer-on" strokes on each note


     AAAAAABBBBBB
|----15-14-----------|
|----------15-14-12~-|
|--------------------|
|--------------------|GTR 2
|--------------------|
|--------------------|


-------------------------------------------------------------------------

ENDING SOLOPART (RIFF 1)

  3 times   3 times
|---------|---------|
|--19~----|--7~-----|
|--21b23~-|--9b11~--|
|---------|---------|
|---------|---------|
|---------|---------|

cont.


  3 times   3 times
|---------|---------|
|--19~----|--7~-----|
|--21b23~-|--9b11~--|
|---------|---------|
|---------|---------|
|---------|---------|


-------------------------------------------------------------------------

  Visit MetalTabs.com for more metal tablature

bottom separator

Contact Us | Privacy Policy | Disclaimer | Legal Notice
Copyright © 2001-2014 MetalTabs.com. All Rights Reserved.