top separator

Home

Forum

What's New

Submit a Tab

FAQ

Links

Contact Us

Link to Us

MetalTabs.com logo

Bands

0-9

A

B

C

D

E

F

G

H

I

J

K

L

M

N

O

P

Q

R

S

T

U

V

W

X

Y

Z

Search

What

Where
 

The Haunted - "Bury Your Dead" Guitar Tab

Plain Text Version
More The Haunted Tabs

Hits: 23542
Rated: 4.50 out of 5 (20 votes)
Updated: 2001-12-13 14:16:51

 

Important note
This tab is available online because we obtained explicit permission from The Haunted or their label.


#----------------------------------PLEASE NOTE---------------------------------#
#This file is the author's own work and represents their interpretation of the #
#song. You may only use this file for private study, scholarship, or research. #
#Unless specified otherwise, this is NOT an official tab from the band members.#
#------------------------------------------------------------------------------#

  Visit MetalTabs.com for more metal tablature
  
                 THE HAUNTED - BURY YOUR DEAD
                 From the Album THE HAUNTED MADE ME DO IT
                 Copyright 2000 EARACHE RECORDS
                 Version 1.3 - NOVEMBER 2001

Originally Transcribed by: HARIS DURAKOVIC
Corrected by: ANDERS BJORLER (THE HAUNTED) - Author
Corrected by: mike iuzzolino

For Questions, Comments, Newest Version, or Corrections contact
HARIS DURAKOVIC: at foreverlorn@gmx.de
or ANDERS BJORLER (dahaunted@hotmail.com)
or mike iuzzolino (metalunix@yahoo.com)


..  - palm mute          /  - slide up to
\  - slide down to      ~  - vibrato
h  - hammer on          b  - bend
p  - pull off            Suffixes for bend
                          ph - pinch harmonic
                           f - full bend    h - half bend
*  - see comment           r - release      t - tap bend
X  - percussion mute       ~ - vibrato bend
@  - slight palm mute     () - ghost note, sustained note

--Bury your dead--

Riff A (played twice)
|-----------------------------------|
|-----------------------------------|
|-----------------------------------|Gtr
|-----------------------------------|I+II
|-----7---8-------11-10-8-7-10--8-7-|
|-0-0---0---0-0-0-------------------|
  . .   .   . . .


|-----------------------------------|
|-----------------------------------|
|-----------------------------------|Gtr
|---------------------------9--8----|I+II
|-----7---8-------11-10-8-7------10-|
|-0-0---0---0-0-0-------------------|
  . .   .   . . .


|--------------------------------------|
|--------------------------------------|
|--------------------------------------|Gtr
|-------------------------8-7h8p7------|I+II first time.
|-----7---8-------11-10-8---------10-8-|Second time: Guitar 1 on this riff
|-0-0---0---0-0-0----------------------|and guitar 2 on riff below
  . .   .   . . .

|-12-----12-----12------12--------8----|
|-15b----15b----15b-----15b------11b---|
|--------------------------------------|Gtr II
|--------------------------------------| Second Ending
|--------------------------------------|
|--------------------------------------|

		   *      **
|-----------------|------|---------------------------|
|-----------------|------|---------------------------|
|-----------------|------|---------------------------|Gtr  (*   first ending)
|-----------------|-9--5-|---5--5---8--8--------3--3-|I    (** second ending)
|-----7---8-------|------|---3--3---6--6--------3--3-|
|-0-0---0---0-0-0-|-7--3-|-0-3--3-0-6--6------0-1--1-|
  . .   .   . . .          .      .

		   *      **
|-------7---------|------|----------(7)--------------|
|------10b--------|------|---------(10b)-------------|
|-----------------|------|-------Raise---------------|Gtr  (*   first ending)
|-----------------|-Pick-|---------w/----------------|II   (** second ending)
|-----7---8-------|Scrape|-----------Whammy----------|
|-0-0---0---0-0-0-|--/\--|----------------Bar--------|
  . .   .   . . .
 Bottom part is 1st time for II gtr. Top part is 2nd time for II gtr.


Riff B
|--------------------------------------------------------------------|
|--------------------------------------------------------------------|
|--------------------------------------------------------------------|Gtr
|-----2---3---0h2---------------------2---3---0h2--------------------|I+II
|-----2---3---0h2---------------------2---3---0h2---------2~--1------|
|-0-0---0---0-----4-3-1-0-3~--1-0-0-0---0---0-----4-3-1-0-------3----|
  . .   .   .     . . . .         . .   .   .     . . . .


|--------------------------------------------------------------------|
|--------------------------------------------------------------------|
|--------------------------------------------------------------------|Gtr
|-----2---3---0h2-----------------------0---2---2h3---5--5----8--8---|I+II
|-----2---3---0h2-------1-0h1p0---------0---2---2h3---3--3----6--6---|
|-0-0---0---0-----4-3-1---------3-1-0-0---0---0-----0-3--3-0--6--6---|
  . .   .   .     . . .             . .   .   .     .      .


Riff C (play twice)
|--------------------------------------------------------------------|
|--------------------------------------------------------------------|
|--------------------------------------------------------------------|Gtr
|-----4---5---4-5-4-------------------4---5---4-5--------------------|I+II
|-----4---5---4-5-4-------1-----------4---5---4-5-4------------------|
|-2-2---2---2-------2-0-3---3-0-3-2-2---2---2-------5555553666666----|
  . .   .   .       . . .         . .   .   .       .............


Riff D (while Gtr I plays riff A)
|--------------------------------------------|
|--------------------------------------------|
|--------------------------------------------|Gtr
|-2------5-9-8----3--5--2------5-9-8----9--9-| II
|-2---------------------2--------------------|
|-0------3-7-6----1--3--0------3-7-6----7--7-|



Riff Ea (while Gtr II fading the E)
|--------------------------------------------------------------------|
|--------------------------------------------------------------------|
|--------------------------------------------------------------------|Gtr
|--------------------------------------------------------------------| I
|--------------------------------------------------------------------|
|-1-0--3-0--5-0--6-0--7-0-0-7-8-7-0--7-6-0-6-5-0-5-3-0-3-1-0-0-------|


Riff Eb
|--------------------------------------------------------------------|
|--------------------------------------------------------------------|
|--------------------------------------------------------------------|Gtr
|--------------------------------------------------------------------|I+II
|--------------------------------------------------------------------|
|-1-0-0-3-0-0-5-0-0-6-0-0-7-0-0-7-8-7-0-7-6-0-6-5-0-5-3-0-3-1-0-0----|
  . . . . . . . . . . . . . . . . . . . . . . . . . . . . . . . .

Transition between riff Eb and F:
|--------------------|
|--------------------|
|-3------------------|Gtr
|-3---3--------------|I+II
|-1---3--------------|
|-----1--------------|


Riff F play two times
|--------------------------------------------------------|
|--------------------------------------------------------|
|--------------------------------------------------------|Gtr
|-2------------2------------2----------------------------|I+II
|-2---5--------2---5--------2---5------------------------|
|-0-----3-1~---0-----3-1~---0-----3-1~---1-0-0-3-0-0-5-0-|
                                         . . . . . . . .


|--------------------------------------------------------|
|--------------------------------------------------------|
|--------------------------------------------------------|Gtr
|-2------------2------------2----------------------------|I+II
|-2---5--------2---5--------2---5------------------------|
|-0-----3-1~---0-----3-1~---0-----3-1~---5-0-0-1-0-0-3-0-|

                                         . . . . . . . .

Ending of riff F (2:nd time):

|--------------------|
|--------------------|
|--------------------|Gtr 1+II
|--------------------|
|--------------------|
|--5-0-0-1-0-0-3-4---|
   . . . . . . . .



|-------------------------------------------------|
|-10---10---10--10----tr--------------------------|
|-13b--13b--13b-13b--9-(12)--7--5--4--------------|
|-------------------------------------------------|
|-------------------------------------------------|
|-------------------------------------------------|


|-------------------------------------------------|
|---------------------------h-p-------------*-----|
|-/9---7-9---7-10-9-7-5-4--4-5-4-4--2-1----(1)----|
|----7-----7--------------------------------------|
|-------------------------------------------------|
|-------------------------------------------------|
     * Do a dive with w/b.
                                                           *
|----------------------------------------5--------12--12--12----|
|------------------------------------------5-3~---15b-15b-15b---|
|-9"-7"-5"-7"-9"-7"-5"-7~---------------------------------------|
|---------------------------------0-2-5-------------------------|
|---------------------------0-2-3-------------------------------|
|---------------------------------------------------------------|


Riff G (Rhythm on solo)
|-------------------------------------------------|
|-------------------------------------------------|
|-------------------------------------------------|Gtr
|-7------3----------------------------------------| II
|-7------3--------7-----7-------10-7-----7---10---|
|-5------1------0---0-0---0-0-0------0-0---0----0-|
                .   . .   . . .      . .   .    .


|-------------------------------------------------|
|-------------------------------------------------|
|-------------------------------------------------|
|-7------3----------------------------------------|
|-7------3--------7-----7-------5h7-----7---5-----|
|-5------1------0---0-0---0-0-0-----0-0---0---0---|
                .   . .   . . .     . .   .   .

  Visit MetalTabs.com for more metal tablature

bottom separator

Contact Us | Privacy Policy | Disclaimer | Legal Notice
Copyright © 2001-2014 MetalTabs.com. All Rights Reserved.