top separator

Home

Forum

FAQ

Contact Us

Link to Us

MetalTabs.com logo

Bands

0-9

A

B

C

D

E

F

G

H

I

J

K

L

M

N

O

P

Q

R

S

T

U

V

W

X

Y

Z

Therion - "Seven secrets of the Sphinx" Guitar Tab

Plain Text Version
More Therion Tabs

Hits: 4041
Rated: 3.33 out of 5 (6 votes)
Updated: 2001-09-13 14:54:08


#----------------------------------PLEASE NOTE---------------------------------#
#This file is the author's own work and represents their interpretation of the #
#song. You may only use this file for private study, scholarship, or research. #
#Unless specified otherwise, this is NOT an official tab from the band members.#
#------------------------------------------------------------------------------#

  Visit MetalTabs.com for more metal tablature
  
Taken with permission from http://www.megatherion.com

 ЪДДДДДДДДДДДДВДДДДДДДДДДДДДДДДДДДДДДДДДДДДДДДДВДДДДДДДДДДДДДДДДДДДДДДДДДДДДї
 і BAND:      і THERION                        і  http://www.element.hr/    і
 і ALBUM:     і DEGGIAL (NUCLEAR BLAST, 2000)  і         ~megatherion       і
 і SONG NAME: і SECRET OF THE SEVEN SPHINX     і  pandemonius@element.hr    і
 ГДДДДДДДДДДДДБДДВДДДДДДДДДДДДДДДДДДДДДДДДДДДДДБВДДДДДДДДДДДДДДДДДДДДДДДДДДДґ
 і LEGEND:       і version 1.1 update 01/25/'00 і TUNING: Cb (1 step down) і
 і * = palm mute і                              АДДДДДДДДДДДДДДДДДДДДДДДДДДДЩ
 і / = slide     і
 АДДДДДДДДДДДДДДДЩ


 This is the TAB for the LEAD GUITAR only! The Rythm guitar uses riffs
  which are constantly palm-muted and very simple...
   please send updated or corrections to me, at PANDEMONIUS@ELEMENT.HR
    this tab is NOT perfect...


RIFF 1
|-------------------|
|-------------------|
|-------------------|
|-------------------|
|--5-5-5-5-6-5-3-5--|
|--3-3-3-3-4-3-1-3--|
   * *   *

RIFF 2
|-------------------|
|-------------------|
|-------------------|
|--5-5-5-5-6-5-3-5--|
|--3-3-3-3-4-3-1-3--|
|-------------------|
   * *   *

RIFF 3
|---------------------------------------------------|
|---------------------------------------------------|
|---------------------------------------------------|
|--------------------------------------15-14-13-12--|
|--13-13-13-13-13-13-13-13-13-13-13-13--------------|
|---------------------------------------------------|

|---------------------------------------------------|
|---------------------------------------------------|
|---------------------------------------------------|
|--------------------------------------15-14-13-12--|
|--12-12-12-12-12-12-12-12-12-12-12-12--------------|
|---------------------------------------------------|

CHORD 1
|--0--|
|--3--|
|--4--|
|--3--|
|-----|
|-----|

OUTRO RIFF
|-----------------------------------------------------------|
|-----------------------------------------------------------|
|-----------------------------------------------------------|
|--10-10----------------------------10-10-----------4/3/4---|
|---7--7---7-7-7-7-4-4-4-4-3-3-3-3---7--7-7-7-7-7---2/1/2---|
|-----------------------------------------------------------|
           * * * * * * * * * * * *        * * * *
           /\
           not very sure about this

RIFF 1 x8
RIFF 2 x4
RIFF 1 x4
RIFF 3 x4
CHORD1 x4
RIFF 3 x4
CHORD1 x4
RIFF 1 x8
RIFF 2 x4
RIFF 1 x4
RIFF 3 x4
CHORD1 x4
RIFF 3 x4
CHORD1 x4
OUTRO  x4

I'm not sure if there is another riff with CHORD 1... I think
it's something like RIFF3, but played an octave lower ... ???

  Visit MetalTabs.com for more metal tablature

bottom separator

Contact Us | Privacy Policy | Disclaimer
Copyright © 2001-2014 MetalTabs.com. All Rights Reserved.