top separator

Home

Forum

What's New

Submit a Tab

FAQ

Links

Contact Us

Link to Us

MetalTabs.com logo

Bands

0-9

A

B

C

D

E

F

G

H

I

J

K

L

M

N

O

P

Q

R

S

T

U

V

W

X

Y

Z

Search

What

Where
 

Gorefest - "The Glorious Dead" Guitar Tab

Plain Text Version
More Gorefest Tabs

Hits: 8587
Rated: 4.71 out of 5 (14 votes)
Updated: 2001-09-03 13:15:54

 

By:

azagthoth_666

sendpm.gif

email.gif

Important note
This tab is available online because we obtained explicit permission from Gorefest or their label.


#----------------------------------PLEASE NOTE---------------------------------#
#This file is the author's own work and represents their interpretation of the #
#song. You may only use this file for private study, scholarship, or research. #
#Unless specified otherwise, this is NOT an official tab from the band members.#
#------------------------------------------------------------------------------#

  Visit MetalTabs.com for more metal tablature
  
GOREFEST
The Glorious Dead
>From their album "False"

Tabbed by Bobby Rafuse (metal_music69@hotmail.com)

Tuning - B (2 1/2 steps down)


*NOTE* Listen to song for correct time. This is also my first time
during a tab from someone either than Cannibal Corpse and Morbid Angel
so if it sucks, give me some slack. Let me know what you think of this
people. If you have any comments, rants, corrections or additions,
email me at the address above


pm - palm mute
/  - slide up
~  - vibrato


Riff 1a
|-----------------------------------|
|-----------------------------------|
|-----------------------------------|
|-----------------------------------|
|-----------------------------------|
|-00000000443311220011220011223344--|


Riff 1b
|----------------------------------|
|----------------------------------|
|----------------------------------|
|----------------------------------|
|---------------------------4-5-6--|
|-000000004433112200112200112-3-4--|



Then play Riff 1a 4x's


Riff 2								  2x
|-------------------------------------------------------------------|
|-------------------------------------------------------------------|
|-------------------------------------------------------------------|
|-------------------------------------------------------------------|
|----777-----888-----555-----555-----333-----888-----999-----555----|
|-555---55444---44333---33222---22111---11666---66777---77333---33--|


Riff 3		     4x
|----------------------|
|----------------------|
|----------------------|
|----------------------|
|----------6--6--5--4--|
|-44443322-4--4--3--2--|
pm         .  .  .  .


Then play Riff 1a 4x's

Then play Riff 2 2x's

Then play Riff 3 4x's


Riff 4a
|--------------------------------------------------------------|
|--------------------------------------------------------------|
|--------------------------------------------------------------|
|--------------------------------------------------------------|
|-2--5--4--2--6---5---2--------2--5--4--2--6---5---2--------3--|
|-0--3--2--0--4---3---0--------0--3--2--0--4---3---0--------1--|


Riff 4b
|-----------------------------------------------------------------|
|-----------------------------------------------------------------|
|-----------------------------------------------------------------|
|-----------------------------------------------------------------|
|-2--5--4--2--6---5---2--------2--5--4--2--6---5---2--------3--3--|
|-0--3--2--0--4---3---0--------0--3--2--0--4---3---0--------1--1--|


Riff 4c
|------------------------------------------------------------------|
|------------------------------------------------------------------|
|------------------------------------------------------------------|
|------------------------------------------------------------------|
|-2--5--4--2--6---5---2---5--4--2--6---5---2---5--4--2--6---5---2--|
|-0--3--2--0--4---3---0---3--2--0--4---3---0---3--2--0--4---3---0--|
|
|Riff 4c (cont.)
|---------------------|
|---------------------|
|---------------------|
|---------------------|
|-5--4--2--8---7---2--|
|-3--2--0--6---5---0--|


Then play Riff 4a

Then play Riff 4b


Riff 5a
|--------------------------------------------------------------------------|
|--------------------------------------------------------------------------|
|--------------------------------------------------------------------------|
|-4-----------4-----------2-----------2-----------4-----------4------------|
|-4---4-4-4-4-4---4-4-4-4-2---2-2-2-2-2---2-2-2-2-4---4-4-4-4-4---4-4-4-4--|
|-2---2-2-2-2-2---2-2-2-2-0---0-0-0-0-0---0-0-0-0-2---2-2-2-2-2---2-2-2-2--|
|
|Riff 5a (cont.)         4x
|--------------------------|
|--------------------------|
|--------------------------|
|-4-----------4------------|
|-4---4-4-4-4-4---4-4-4-4--|
|-2---2-2-2-2-2---2-2-2-2--|


Riff 5b
|--------------------------------------------------------------------------|
|--------------------------------------------------------------------------|
|--------------------------------------------------------------------------|
|-6-----------6-----------6-----------6-----------6-----------6------------|
|-6---6-6-6-6-6---6-6-6-6-6---6-6-6-6-6---6-6-6-6-6---6-6-6-6-6---6-6-6-6--|
|-4---4-4-4-4-4---4-4-4-4-4---4-4-4-4-4---4-4-4-4-4---4-4-4-4-4---4-4-4-4--|
|
|Riff 5b (cont.)
|--------------------------------------------------------------------------|
|--------------------------------------------------------------------------|
|--------------------------------------------------------------------------|
|-6-----------6-----------6-----------6-----------4-----------4------------|
|-6---6-6-6-6-6---6-6-6-6-6---6-6-6-6-6---6-6-6-6-4---4-4-4-4-4---4-4-4-4--|
|-4---4-4-4-4-4---4-4-4-4-4---4-4-4-4-4---4-4-4-4-2---2-2-2-2-2---2-2-2-2--|
|
|Riff 5b (cont.)
|--------------------------------------------------------------|
|--------------------------------------------------------------|
|--------------------------------------------------------------|
|-6-----------6-----------6-----------6-----------6------------|
|-6---6-6-6-6-6---6-6-6-6-6---6-6-6-6-6---6-6-6-6-6---6-6-6-6--|
|-4---4-4-4-4-4---4-4-4-4-4---4-4-4-4-4---4-4-4-4-4---4-4-4-4--|


Then play Riff 5a 2x's

Then play Riff 5b


Riff 6                                                                 4x
|------------------------------------------------------------------------|
|------------------------------------------------------------------------|
|------------------------------------------------------------------------|
|------------------------------------------------------------------------|
|-3------------3------------3------------3-------------------/4~---------|
|-1--000-0-0-0-1--000-0-0-0-1--000-0-0-0-1--000-0-0-0-/4~-----------/2~--|
pm.            .            .            .


Riff 7
|--------------------------------------------------------------------|
|--------------------------------------------------------------------|
|--------------------------------------------------------------------|
|--------------------------------------------------------------------|
|-3----------2----------3----------2----------3----------2-----------|
|-1--0-0-0-0-0--0-0-0-0-1--0-0-0-0-0--0-0-0-0-1--0-0-0-0-0--0-0-0-0--|
pm.          .          .          .          .          .
|
|Riff 7 (cont.)
|----------------------------------------------|
|----------------------------------------------|
|----------------------------------------------|
|----------------------------------------------|
|-3----------2----------3----------2-----------|
|-1--0-0-0-0-0--0-0-0-0-1--0-0-0-0-0--0-0-0-0--|
pm.          .          .          .


Riff 8a	                                2x
|-----------------------------------------|
|-----------------------------------------|
|-----------------------------------------|
|-----------------------------------------|
|------------/7~--------------------------|
|-/5~-------------------4433223322112211--|


Riff 8b                                 2x
|-----------------------------------------|
|-----------------------------------------|
|-----------------------------------------| Gtr.
|-----------------------------------------|  1
|------------/7~--------------------------|
|-/5~-------------------4433223322112211--|
|					  |
|-----------------------------------------|
|-----------------------------------------|
|-----------------------------------------| Gtr.
|------------/5~--------------------------|  2
|-/3~-------------------------------------|
|-----------------------4433223322112211--|


Then play Riff 2 2x's

Then play Riff 3 4x's


Riff 4c
|------------------------|
|------------------------|
|------------------------|
|------------------------|
|-2--5--4--2--6---5---2--|
|-0--3--2--0--4---3---0--|

end.

  Visit MetalTabs.com for more metal tablature

bottom separator

Contact Us | Privacy Policy | Disclaimer | Legal Notice
Copyright © 2001-2014 MetalTabs.com. All Rights Reserved.