top separator

Home

Forum

What's New

Submit a Tab

FAQ

Links

Contact Us

Link to Us

MetalTabs.com logo

Bands

0-9

A

B

C

D

E

F

G

H

I

J

K

L

M

N

O

P

Q

R

S

T

U

V

W

X

Y

Z

Search

What

Where
 

Within Tears - "In Mourning" Guitar Tab

Plain Text Version
More Within Tears Tabs

Hits: 4707
Rated: 5.00 out of 5 (2 votes)
Updated: 2001-08-29 11:58:56

 

By:

Father Death

sendpm.gif

email.gif

Important note
We did our best to reach Within Tears and ask for their permission to publish this tab. Unfortunately they did not respond to our requests or we could not find a way to contact them. This tab is available online until Within Tears tells us to take it down.


#----------------------------------PLEASE NOTE---------------------------------#
#This file is the author's own work and represents their interpretation of the #
#song. You may only use this file for private study, scholarship, or research. #
#Unless specified otherwise, this is NOT an official tab from the band members.#
#------------------------------------------------------------------------------#

  Visit MetalTabs.com for more metal tablature
  
Band: WITHIN TEARS
Album: Moments of Life: Chapter 1
Song: In Mourning

Transcribed by: Chris Humeniuk
Solo Assistance by: Scott McConnery(cerebrus_scott@hotmail.com)
Email:	father_death_666@hotmail.com

Tuning:
strings 1-3 - standard
	4-5 - drop 2 steps
	  6 - drop 3 steps

Note:	All sounds are arranged for guitar in this tuning.

	A 7-string is most likely used in this song, but since
	I don't have one, I had to downtune like crazy.  Since
	downtuning this much is such a pain, I only do it for
	the bottom strings since the heavy part of the song
	only needs the 3 bottom strings.  The solo is played
	in standard with the top 3 strings only.  All other
	parts are easily manipulated in this tuning.

Intro:
(Clean)
(Gtr. 1)
|-----------------------------------------------------|
|-----------------------------------------------------|
|--------------------9--------------------------------|
|------14--13------------13-------13--11-------13--9--|
|-----------------------------------------------------|
|-11------------13------------9------------9----------|

(Gtr. 2)
(light distortion)
|-----------------------------------------------------|
|---------------8----10-------------------------------|
|-7/9-------------------------7------------9---7------|
|-----------------------------------------------------|
|-----------------------------------------------------|
|-----------------------------------------------------|

Pre-Heavy Part:
(Clean)
|----------------------------------------|
|----------------------------------------|
|----------------------------------------|
|----------------------------------------|
|------2----1--------------6----5----1---|
|-1--------------4----6------------------|

Heavy Part:
(Distortion)
|----------------------------------------|
|----------------------------------------|
|----------------------------------------|
|-1----4----3----4----6----1----0----3---|
|-1----2----1----4----6----1----0----1---|
|-1--------------4----6----1----0--------|

Post Heavy Part:
(Clean)
(Gtr. 1)
|-----------------|
|-----------------|
|---------1-------|
|-----2-3---3-2-3-|
|-2---------------|
|---2-------------|

Note:	For this part Gtr. 2 has light distortion on, and is
	randomly scraping and bouncing the pick over the top
	2 or 3 strings.

Outro:
(Clean)
(Gtr. 1)
|---------------------------------------------------------------|
|-17------------------------------------------------------------|
|-----19-17-19--19-19-17--16------14--12-14-16--17-17-16--14----|
|---------------------------------------------------------------|
|---------------------------------------------------------------|
|---------------------------------------------------------------|

(Gtr. 2)
(Clean)
|---------------------------------------------------------------|
|---------------------------------------------------------------|
|---------------------------------------------------------------|
|-6----------------4-------------------------------2------------|
|-4----------------2--------------4----------------0------------|
|---------------------------------4-----------------------------|

(Gtr. 3)
(Clean)
|---------------------------------------------------------------|
|---------------------------------------------------------------|
|---------------------------------------------------------------|
|---------------------------------------------------------------|
|-(4)----7-9----7-9-------9-7--6--4----------------7--6---4-----|
|-------------------------------------6--7--9---7---------------|

Ending Solo:
(Distortion)
|------------------------------------------------------------------
|-------------------3--5--3-------------------8--10---11-12-13--10-
|-2----------2h4-5-------------9h10-9----9h10----------------------
|------------------------------------------------------------------
|------------------------------------------------------------------
|------------------------------------------------------------------

-------/12--10---8------/12--10---8------/12--10---12/13-15---13--
------------------------------------------------------------------
------------------------------------------------------------------
------------------------------------------------------------------
------------------------------------------------------------------
------------------------------------------------------------------

/17--15---13----13h15-12-------12h13-12-----10-8--10--------------
------------------------------------------------------10h12-10----
------------------------------------------------------------------
------------------------------------------------------------------
------------------------------------------------------------------
------------------------------------------------------------------

---------------------------|
---10h12-10--8-------------|
-----------------9---------|
---------------------------|
---------------------------|
---------------------------|

  Visit MetalTabs.com for more metal tablature

bottom separator

Contact Us | Privacy Policy | Disclaimer | Legal Notice
Copyright © 2001-2014 MetalTabs.com. All Rights Reserved.