top separator

Home

Forum

What's New

Submit a Tab

FAQ

Links

Contact Us

Link to Us

MuSpy.com

MetalTabs.com logo

Bands

0-9

A

B

C

D

E

F

G

H

I

J

K

L

M

N

O

P

Q

R

S

T

U

V

W

X

Y

Z

Search

What

Where
 

Storm (NO) - "Langt Borti Lia" Guitar Tab

Plain Text Version
More Storm (NO) Tabs

Hits: 6287
Rated: 3.82 out of 5 (11 votes)
Updated: 2001-08-26 05:10:25

 

Important note
This tab is available online because we obtained explicit permission from Storm (NO) or their label.


#----------------------------------PLEASE NOTE---------------------------------#
#This file is the author's own work and represents their interpretation of the #
#song. You may only use this file for private study, scholarship, or research. #
#Unless specified otherwise, this is NOT an official tab from the band members.#
#------------------------------------------------------------------------------#

  Visit MetalTabs.com for more metal tablature
  
STORM "LANGT BORTI LIA"
FROM THE LP "NORDAVIND"
			      
 means: repeat between the 2  signs (In Riff E & F)

Riff A:			  Play 10X
|---------------------------------|
|---------------------------------|
|---------------------------------|
|------------------------7-6-9----|
|9--9-10-7--7-9--5--9-9--5-4-7-9--|
|7--7-8--5--5-7--3--7-7--------7--|

Riff B:						     Play 6X
|-----------------------------------------------------------|
|-----------------------------------------------------------|
|-----------------------------------------------------------|
|---9-9-----------------------------------------------------|
|0--7-7--9-10-7-9--7-7-9-10-9-7-9----7---6-7-9-10-7-9----7--|
|--------7-8--5-7--5-5-7-8--7-5-7--0-5---4-5-7-8--5-7--0-5--|

Riff C:
|-----------------------------------------------
6|-----------------------------------------------
-|-----------------------------------------------
8|-----------------------------------------------
|7-7--7-2--9-9--9-9--10-10--10-12--14-14--12-9--
|5-5--5-0--7-7--7-7--8--8---8--10--12-12--10-7--

					Play 6X
----------------------------------------------|
----------------------------------------------|
----------------------------------------------|
----------------------------------------------|
10--7-9-10--9--5-7-9--10-10--9-7----7-7----7--|
8---5-7-8---7--3-5-7--8--8---7-5--0-5-5--0-5--|
				    (End Riff C)
Riff D:
|---------------------------------------------|
4|---------------------------------------------|
-|4-----------9--------------------------------|
4|2--4-5-2----7--10-9-7---9--5-7-9---4--5-4-2--|
|---2-3-0-------8--7-5---7--3-5-7---2--3-2-0--|
|---------------------------------------------|

Riff E:
|--------------------------------------|
|--------------------------------------|
|------------------------------------|
|-9-9-9-9-7-5-4---5--4-2----2-4-2--2-|
|0-7-7-7-7-5-3-2---3--2-0-6--0-2-0--0--|
|-------------------------4------------|
					Play 4X
|----------------------------------------------|
|----------------------------------------------|
|----------------------------------------------|
|9---4--5-5-9--7-5-4---9-9-9-7-----------------|
|7---2--3-3-7--5-3-2---7-7-7-5-10-9--7-6-7--7--|
|------------------------------8--7--5-4-5--5--|
				    (End Riff E)

SLOWER

Riff F:
|---------------------------------------|
|---------------------------------------|
|-------------------------------------|
|5--7-9--10-9--7-5--4-2----2--4-5---4-|
|-3--5-7--8--7--5-3--2-0--6-0--2-3---2--|
|-------------------------4-------------|
  		     Play aprox. 5X
|----------------------------------|
|----------------------------------|
|----------------------------------|
|5---4---5---4---2-----------------|
|3---2---3---2---0-6--2-4--6-7--7--|
|------------------4--0-2--4-5--5--|
			(End Riff F)
FADE

Tabbed by Anders Pedersen: mc_nyregrus@hotmail.com

  Visit MetalTabs.com for more metal tablature

bottom separator

Contact Us | Privacy Policy | Disclaimer | Legal Notice
Copyright © 2001-2014 MetalTabs.com. All Rights Reserved.