top separator

Home

Forum

What's New

Submit a Tab

FAQ

Links

Contact Us

Link to Us

MuSpy.com

MetalTabs.com logo

Bands

0-9

A

B

C

D

E

F

G

H

I

J

K

L

M

N

O

P

Q

R

S

T

U

V

W

X

Y

Z

Search

What

Where
 

Tristania - "Lethean River" Guitar Tab

Plain Text Version
More Tristania Tabs

Hits: 7802
Rated: 3.59 out of 5 (22 votes)
Updated: 2001-08-09 09:52:36

 

Important note
This tab is available online because we obtained explicit permission from Tristania or their label.


#----------------------------------PLEASE NOTE---------------------------------#
#This file is the author's own work and represents their interpretation of the #
#song. You may only use this file for private study, scholarship, or research. #
#Unless specified otherwise, this is NOT an official tab from the band members.#
#------------------------------------------------------------------------------#

  Visit MetalTabs.com for more metal tablature
  
-------------------------
Tristania - Lethean River
Album: Beyond the Veil
-------------------------

Transcribed by Rune Carlsen (runec@hotmail.com)

not complete... but almost?! well well....

Tuning (EADGBe)


Intro: (0:00)

  Gtr1 Clean:
e|-7-----------7---5-----------8---7-----------7---5-----------8--------------|
B|-----8---------------5---------------8---------------5----------------------|
G|---------9---------------7---------------9---------------7------------------|
D|----------------------------------------------------------------------------|
A|-7---------------5---------------7---------------5--------------------------|
E|----------------------------------------------------------------------------|
|
|
|Gtr2 Distortion:
|
e|----------------------------------------------------------------------------|
B|----------------------------------------------------------------------------|
G|-----------------7-7-7-7-7-7-7-7-----------------7-7-7-7-7-7-7-7------------|
D|-2-2-2-2-2-2-2-2-7-7-7-7-7-7-7-7-2-2-2-2-2-2-2-2-7-7-7-7-7-7-7-7------------|
A|-2-2-2-2-2-2-2-2-5-5-5-5-5-5-5-5-2-2-2-2-2-2-2-2-5-5-5-5-5-5-5-5------------|
E|-0-0-0-0-0-0-0-0-----------------0-0-0-0-0-0-0-0----------------------------|



               ?  ?  ?  ?  ?  ?
e|-5-------------------------------7-----------7---10-------------------------|
B|-----5-------------------------------8--------------------------------------|
G|---------5-------------------------------9----------------------------------|
D|----------------------------------------------------------------------------|
A|---------------------------------7------------------------------------------|
E|-5--------------------------------------------------------------------------|
|
|
|
|
e|----------------------------------------------------------------------------|
B|----------------------------------------------------------------------------|
G|----------------------------------------------------7-7-7-7/12-12-12--------|
D|-7-7-7-7-7-7-7-7-7-7-7-7-7-7-7-7-2-2-2-2-2-2-2-2--2-7-7-7-7/12-12-12--------|
A|-7-7-7-7-7-7-7-7-7-7-7-7-7-7-7-7-2-2-2-2-2-2-2-2--2-5-5-5-5/10-10-10--------|
E|-5-5-5-5-5-5-5-5-5-5-5-5-5-5-5-5-0-0-0-0-0-0-0-0--0-------------------------|


      . .               . .               . .
x2
e|----------------------------------------------------------------------------|
B|----------------------------------------------------------------------------|
G|-2-----------------2-----------------2---------------------0------0---------|
D|-2------3h2-2-2-0--2------3h2-2-2-0--2------3h2-2-2-0----2------4-----------|
A|-0--0-0------------0--0-0------------0--0-0------------3-----/5-------------|
E|----------------------------------------------------------------------------|



1st Verse: (0:52)
e|----------------------------------------------------------------------------|
B|----------------------------------------------------------------------------|
G|-2---------------------------------------------------------0------0---------|
D|-2-------------------------------------------------------2------4-----------|
A|-0-----------------------------------------------------3-----/5-------------|
E|----------------------------------------------------------------------------|


e|----------------------------------------------------------------------------|
B|----------------------------------------------------------------------------|
G|-2---------------------------------------------------------0------0---------|
D|-2-------------------------------------------------------2------4-----------|
A|-0-----------------------------------------------------3-----/5-------------|
E|----------------------------------------------------------------------------|


2nd Verse: (1:07)
      . .               . .               . .
e|----------------------------------------------------------------------------|
B|----------------------------------------------------------------------------|
G|-2-----------------2-----------------2---------------------0------0---------|
D|-2------3h2-2-2-0--2------3h2-2-2-0--2------3h2-2-2-0----2------4-----------|
A|-0--0-0------------0--0-0------------0--0-0------------3-----/5-------------|
E|----------------------------------------------------------------------------|


      . .               . .               . .
e|----------------------------------------------------------------------------|
B|----------------------------------------------------------------------------|
G|-2-----------------2-----------------2---------------------0------0---------|
D|-2------3h2-2-2-0--2------3h2-2-2-0--2------3h2-2-2-0----2------4-----------|
A|-0--0-0------------0--0-0------------0--0-0------------3-----/5-------------|
E|----------------------------------------------------------------------------|


1st Interlude: (1:22)
e|----------------------------------------------------------------------------|
B|----------------------------------------------------------------------------|
G|----------------------------------------------------------------------------|
D|-10-10-10-10-10-10-10-10-10-10-10-10-10-9-7-9-9-9-9-9-9-9-9-9-9-9-9-9/11-11-|
A|--8--8--8--8--8--8--8--8--8--8--8--8--8-7-5-7-7-7-7-7-7-7-7-7-7-7-7-7/-9--9-|
E|----------------------------------------------------------------------------|


e|----------------------------------------------------------------------------|
B|----------------------------------------------------------------------------|
G|----------------------------------------------------------------------------|
D|-14-14-14-14-14-14-14-14-10-10-10-10-10-9-7-9-9-9-9-9-9-9-9-9-9-9-9-9/11-11-|
A|-12-12-12-12-12-12-12-12--8--8--8--8--8-7-5-7-7-7-7-7-7-7-7-7-7-7-7-7/-9--9-|
E|----------------------------------------------------------------------------|


Repeat 1st Verse: (1:38)
      . .               . .               . .
e|----------------------------------------------------------------------------|
B|----------------------------------------------------------------------------|
G|-2-----------------2-----------------2---------------------0------0---------|
D|-2------3h2-2-2-0--2------3h2-2-2-0--2------3h2-2-2-0----2------4-----------|
A|-0--0-0------------0--0-0------------0--0-0------------3-----/5-------------|
E|----------------------------------------------------------------------------|


      . .               . .               . .
e|----------------------------------------------------------------------------|
B|----------------------------------------------------------------------------|
G|-2-----------------2-----------------2---------------------0------0---------|
D|-2------3h2-2-2-0--2------3h2-2-2-0--2------3h2-2-2-0----2------4-----------|
A|-0--0-0------------0--0-0------------0--0-0------------3-----/5-------------|
E|----------------------------------------------------------------------------|


** Repeat 1st Interlude (1:53)


2nd Interlude: (2:08)                                           x2   2nd
time:
e|------------------------------------------------------------------|---------|
B|------------------------------------------------------------------|---------|
G|------------------------------5-7---------------------------------|-7-------|
D|-----9--7--5-4-------9--7--5-----------9--7--5-4-5-----7--5-4-5-7-|-7-------|
A|-7-------------7--7-----------------7---------------5-------------|-5-------|
E|------------------------------------------------------------------|---------|


Violin solo: (2:39)                                        (strum chords)
x2
e|-5------------------------------------|-3-----------------------------------|
B|-6--/--/--/--/--/--/--/--/--/--/--/---|-5--/--/--/--/--/--/--/--/--/--/--/--|
G|-7------------------------------------|-5-----------------------------------|
D|-7--/--/--/--/--/--/--/--/--/--/--/---|-5--/--/--/--/--/--/--/--/--/--/--/--|
A|-5------------------------------------|-3-----------------------------------|
E|--------------------------------------|-------------------------------------|


e|-5------------------------------------|-3-----------------------------------|
B|-6--/--/--/--/--/--/--/--/--/--/--/---|-5--/--/--/--/--/--/--/--/--/--/--/--|
G|-7------------------------------------|-5-----------------------------------|
D|-7--/--/--/--/--/--/--/--/--/--/--/---|-5--/--/--/--/--/--/--/--/--/--/--/--|
A|-5------------------------------------|-3-----------------------------------|
E|--------------------------------------|-------------------------------------|


e|-5------------------------------------|-3-----------------------------------|
B|-6--/--/--/--/--/--/--/--/--/--/--/---|-5--/--/--/--/--/--/--/--/--/--/--/--|
G|-7------------------------------------|-5-----------------------------------|
D|-7--/--/--/--/--/--/--/--/--/--/--/---|-5--/--/--/--/--/--/--/--/--/--/--/--|
A|-5------------------------------------|-3-----------------------------------|
E|--------------------------------------|-------------------------------------|


      . .    . .   . .          . .    . .  . ..  . ..  . ..
x2
e|----------------------------------------------------------------------------|
B|----------------------------------------------------------------------------|
G|-7------7------7-----5--5---------------------------------------------------|
D|-7------7------7-----5--5--5------5-------3-----5-----8-----10-10-----------|
A|-5--5-5-5--5-5-5-5-5-3--3--5------5-------3-33--5-55--8-88--10-10-----------|
E|---------------------------3--3-3-3--3-3--1-11--3-33--6-66---8--8-----------|


      . .    . .   . .          . .    . .  . ..  . ..  . ..
e|----------------------------------------------------------------------------|
B|----------------------------------------------------------------------------|
G|-7------7------7-----5--5---------------------------------------------------|
D|-7------7------7-----5--5--5------5-------3-----5-----8-----10-10-----------|
A|-5--5-5-5--5-5-5-5-5-3--3--5------5-------3-33--5-55--8-88--10-10-----------|
E|---------------------------3--3-3-3--3-3--1-11--3-33--6-66---8--8-----------|


      . .    . .   . .          . .    . .  . ..  . ..  . ..
e|----------------------------------------------------------------------------|
B|----------------------------------------------------------------------------|
G|-7------7------7-----5--5---------------------------------------------------|
D|-7------7------7-----5--5--5------5-------3-----5-----8-----10-10-----------|
A|-5--5-5-5--5-5-5-5-5-3--3--5------5-------3-33--5-55--8-88--10-10-----------|
E|---------------------------3--3-3-3--3-3--1-11--3-33--6-66---8--8-----------|



** Repeat 2nd Interlude (3:39)




(3:55)

???............


good luck!!!

mail: runec@hotmail.com

  Visit MetalTabs.com for more metal tablature

bottom separator

Contact Us | Privacy Policy | Disclaimer | Legal Notice
Copyright © 2001-2014 MetalTabs.com. All Rights Reserved.