top separator

Home

Forum

What's New

Submit a Tab

FAQ

Links

Contact Us

Link to Us

MetalTabs.com logo

Bands

0-9

A

B

C

D

E

F

G

H

I

J

K

L

M

N

O

P

Q

R

S

T

U

V

W

X

Y

Z

Search

What

Where
 

Soulfly - "Bleed" Bass Tab

Plain Text Version
More Soulfly Tabs

Hits: 4356
Rated: 3.00 out of 5 (1 vote)
Updated: 2001-08-07 12:47:28

 

Important note
This tab is available online because we obtained explicit permission from Soulfly or their label.


#----------------------------------PLEASE NOTE---------------------------------#
#This file is the author's own work and represents their interpretation of the #
#song. You may only use this file for private study, scholarship, or research. #
#Unless specified otherwise, this is NOT an official tab from the band members.#
#------------------------------------------------------------------------------#

  Visit MetalTabs.com for more metal tablature
  
Song: Bleed
Artist: Soulfly
Album: Soulfly
Label: Roadrunner
Tabbed By: Daine Vineyard

Arranged for 4 string in drop c tuning(2 steps down): Low to high C A D G

Good song featuring Fred Durst

Intro	    Verse intro         Verse
g|---------|-------------------|-----------
d|---------|-------------------|-----------
a|---------|-------------------|-----------
c|-0-0-0-0-|-3-0-3-0-2-2-2-3-0-|-0-0-0-0-0-

Chorus
g|---------------------
d|---------------------
a|---------------------
c|-3-0-3-0-2-2-2-0-3-0-

Bleed
g|-------------------------
d|-------------------------
a|-------------------------
c|-6-0-6-0-6-0-2-0-2-0-2-0-

slow		      Slow Verse
g|-------------------|------------------
d|-------------------|------------------
a|-------------------|------------------
c|-2-0-0-2-0-0-0-6-6-|-2-0-0-2-0-0-2-0--

Drum solo
g|-------------
d|-------------
a|-------------
c|-2-0-0-2-0-0-


One More thing....
These tabs are made by myself.  I do not copy them out of tab books or off of the internet.  They
are created by me sitting on my bed with a portable cd player, my bass guitar, and a peice of
paper.  They are probably not right, but they give you something to go by.  I tab them based on
how they sound.  So don't email me or tell me that I suck because I'm trying my best.  Thanks
-Daine


--
__--__(())__--__(())__--__**|**__--__(())__--__(())__--__**|
TV and money rule the world today.  The government can
access all our files.  They can tell us when we took our
first step.  What brand of cereal we buy most.  When will
it stop?  At what will it stop?  Who rules the country?
    WHOEVER HAS THE MOST MONEY HAS THE MOST POWER.
Daine Vineyard                       biohazard21@hotmail.com
ICQ 16162798                        Credit card#-ask the FBI.
               http://twist.cjb.net

  Visit MetalTabs.com for more metal tablature

bottom separator

Contact Us | Privacy Policy | Disclaimer | Legal Notice
Copyright © 2001-2014 MetalTabs.com. All Rights Reserved.