top separator

Home

Forum

What's New

Submit a Tab

FAQ

Links

Contact Us

Link to Us

MuSpy.com

MetalTabs.com logo

Bands

0-9

A

B

C

D

E

F

G

H

I

J

K

L

M

N

O

P

Q

R

S

T

U

V

W

X

Y

Z

Search

What

Where
 

Krisiun - "Sepulchral Oath" Guitar Tab

Plain Text Version
More Krisiun Tabs

Hits: 4191
Rated: 5.00 out of 5 (1 vote)
Updated: 2001-07-31 01:28:40

 

Important note
We did our best to reach Krisiun and ask for their permission to publish this tab. Unfortunately they did not respond to our requests or we could not find a way to contact them. This tab is available online until Krisiun tells us to take it down.


#----------------------------------PLEASE NOTE---------------------------------#
#This file is the author's own work and represents their interpretation of the #
#song. You may only use this file for private study, scholarship, or research. #
#Unless specified otherwise, this is NOT an official tab from the band members.#
#------------------------------------------------------------------------------#

  Visit MetalTabs.com for more metal tablature
  
                      KRISIUN - SEPULCHRAL OATH
                      From the Album  AGELESS VENOMOUS
                      Copyright 2001 (Century Media Records)
                      Version 1.0 - July 2001

Transcribed by: Chris Ninman
For Questions, Comments, Newest Version, or Corrections contact
       Chris Ninman at:       snowballingblood@hotmail.com

 ..  - palm mute          /  - slide up to
 \  - slide down to      ~  - vibrato
 h  - hammer on          b  - bend
 p  - pull off            Suffixes for bend
                          ph - pinch harmonic
                           f - full bend    h - half bend
 *  - see comment           r - release      t - tap bend
 X  - percussion mute       ~ - vibrato bend
 @  - slight palm mute     () - ghost note, sustained note

Tuning B  (B,E,A,D,F#,B)

Riff 1 (4 times)
|-----------------------------------------------------|
|-----------------------------------------------------|
|-----------------------------------------------------|
|-2------2------3-----2------2------3-----2-3-6-3-2-3-|
|-2------2------3-----2------2------3-----2-3-6-3-2-3-|
|-0--000-0--000-1-----0--000-0--000-1-----0-1-4-1-0-1-|
     ...    ...          ...    ...       . . . . . .

Riff 2 (4 times)
|----------------------------------------------------------|
|----------------------------------------------------------|
|----------------------------------------------------------|
|-9------9-----10-----9------9-----10-----9-10-13-10--9-10-|
|-7------7------8-----7------7------8-----7--8-11--8--7--8-|
|----000----000----------000----000------------------------|
     ...    ...          ...    ...

Riff 3 (1 time)
|-------------------------------|
|-------------------------------|
|-------------------------------|
|-------------------------------|
|-5"-5--6"-3--5"-5--6"-3--5"-5--|
|-------------------------------|

Riff 4 (1 time)
|-------------------------------|
|-------------------------------|
|-------------------------------|
|-------------------------------|
|-7"-7--8"-5--7"-7--8"-5--7"-7--|
|-------------------------------|

Repeat Riff 3 (1 time)
Repeat Riff 4 (1 time)

Riff 5 (1 time)
|----------------------------------|
|----------------------------------|
|----------------------------------|
|----------------------------------|
|-10"10--11"8--10"10--11"8--10"10--|
|----------------------------------|

Riff 6 (1 time)
|--------------------------------------------------|
|--------------------------------------------------|
|--------------------------------------------------|
|--------------------------------------------------|
|-12"12--13"10--12"12--13"10--12"12--12"12--12"12\-|
|--------------------------------------------------|

Riff 7 (2 times)
|--------------------|
|--------------------|
|--------------------|
|--------------------|
|-7"-8--11"12--11"8--|
|--------------------|

Riff 8 (2 times)
|----------------------|
|----------------------|
|----------------------|
|----------------------|
|-10"11--14"15--14"11--|
|----------------------|

Repeat Riff 7 (2 times)
Repeat Riff 8 (2 times)

Riff 9 (2 times)
|----------------------|
|----------------------|
|----------------------|
|----------------------|
|--7"-8--11"12--11"-8--|
|----------------------|
|
|----------------------|
|----------------------|
|----------------------|
|----------------------|
|-10"11--14"15--14"11--|
|----------------------|

Riff 10 (2 times)
|----------------------|
|----------------------|
|----------------------|
|----------------------|
|-10"11--14"15--14"11--|
|----------------------|
|
|----------------------|
|----------------------|
|----------------------|
|----------------------|
|-13"14--17"18--17"14--|
|----------------------|

Repeat Riff 9 (2 times)
Repeat Riff 10 (2 times)

Riff 11 (6 times)
|------------------------------------------------------------|
|------------------------------------------------------------|
|------------------------------------------------------------|
|------------------------------------------------------------|
|-7"---8"-7"-11"-7"-8"-7"-10"-7"-8"-7---11"10--11"14--11"10--|
|------------------------------------------------------------|

Repeat Riff 7 (2 times)
Repeat Riff 8 (2 times)
Repeat Riff 7 (2 times)
Repeat Riff 8 (2 times)

Fill 1
|-------|
|-------|
|-------|
|-------|
|-7"-7--|
|-------|

Repeat Riff 11 (6 times)
Repeat Riff 3 (1 time)
Repeat Riff 4 (1 time)
Repeat Riff 5 (1 time)
Repeat Riff 6 (1 time)

Riff 12 (2 times)
|--------------------|
|--------------------|
|--------------------|
|--------------------|
|-7"-8--11"12--11"8--|
|--------------------|
|
|--------------------|
|--------------------|
|-9"10--13"14--13-10-|
|--------------------|
|--------------------|
|--------------------|

Riff 13 (2 times)
|----------------------|
|----------------------|
|----------------------|
|----------------------|
|-10"11--14"15--14"11--|
|----------------------|
|
|----------------------|
|----------------------|
|-12"13--16"17--16-13--|
|----------------------|
|----------------------|
|----------------------|

Repeat Riff 12 (2 times)
Repeat Riff 13 (2 times)
Repeat Riff 12 (2 times)
Repeat Riff 13 (2 times)
Repeat Riff 12 (2 times)
Repeat Riff 13 (2 times)
Repeat Riff 1 (6 times)

Riff 14 (1 time)
|-----------------------------------------------------------------|
|-----------------------------------------------------------------|
|-----------------------------------------------------------------|
|-222-222-222-222-222-222-222-222-222-222-222-222-222-222-222-222-|
|-222-222-222-222-222-222-222-222-222-222-222-222-222-222-222-222-|
|-000-000-000-000-000-000-000-000-000-000-000-000-000-000-000-000-|
  ... ... ... ... ... ... ... ... ... ... ... ... ... ... ... ...

Riff 14 (4 times)
|-------------------------------|
|-------------------------------|
|-9-9-9---9-9-9---9-9-9---10"---|
|-------------------------------|
|-7-7-7---7-7-7---7-7-7----8"---|
|-------------------------------|

Riff 15 (times)
|-------------------------------|
|-------------------------------|
|-9-9-9-----------9-9-9---10"---|
|-------------------------------|
|-7-7-7-----------7-7-7----8"---|
|-------------------------------|

Repeat Riff 14 (4 times)

Riff 16 (2 times)
|------------------------------------------------------------|
|------------------------------------------------------------|
|------------------------------------------------------------|
|------------------------------------------------------------|
|-7"---8"-7"-11"-7"-8"-7"-10"-7"-8"-7---11"10--11"14--11"10--|
|------------------------------------------------------------|
|
|------------------------------------------------------------|
|------------------------------------------------------------|
|-9"---10"9"-13"-9"10"-9"-12"-9"10"-9---13"12--13"16--13"12--|
|------------------------------------------------------------|
|------------------------------------------------------------|
|------------------------------------------------------------|

Repeat Riff 11 (4 times)

Riff 17 (1 time)
|---------------------------------|
|---------------------------------|
|---------------------------------|
|-8-----9-----3-----2-------------|
|-------------------2-----bar-----|
|-6-----7-----1-----0-----dive----|

Repeat Riff 1 (4 times)

Riff 18 (2 times)
|----------------------------------------------------------|
|----------------------------------------------------------|
|--9-----------10-----9------------10-----9-10-13-10--9-10-|
|----------------------------------------------------------|
|--7------------8-----7-------------8-----7--8-11--8--7--8-|
|----------------------------------------------------------|
|
|----------------------------------------------------------|
|----------------------------------------------------------|
|-12-----------13----12------------13----12-13-16-13-12-13-|
|----------------------------------------------------------|
|-10-----------11----10------------11----10-11-13-11-10-11-|
|----------------------------------------------------------|

Repeat Riff 2 (2 times)

Ending
|--------------------------------------------------------------|
|--------------------------------------------------------------|
|--------------------------------------------------------------|
|-9------9-----10-----9------9-----10----ph-ph-ph-ph-ph-ph-ph--|
|-7------7------8-----7------7------8-----7--8-11--8--7--8--7--|
|----000----000----------000----000----------------------------|
|    ...    ...          ...    ...
|--------------------------------------------------------------|
|--------------------------------------------------------------|
|--------------------------------------------------------------|
|-9------9-----10-----9------9-----10-----9-10-13----------ph--|
|-7------7------8-----7------7------8-----7--8-11--8--7--8--7--|
|----000----000----------000----000----------------------------|
     ...    ...          ...    ...

  Visit MetalTabs.com for more metal tablature

bottom separator

Contact Us | Privacy Policy | Disclaimer | Legal Notice
Copyright © 2001-2014 MetalTabs.com. All Rights Reserved.