top separator

Home

Forum

What's New

Submit a Tab

FAQ

Links

Contact Us

Link to Us

MuSpy.com

MetalTabs.com logo

Bands

0-9

A

B

C

D

E

F

G

H

I

J

K

L

M

N

O

P

Q

R

S

T

U

V

W

X

Y

Z

Search

What

Where
 

The Everdawn - "Needlework" Guitar Tab

Plain Text Version
More The Everdawn Tabs

Hits: 3479
Rated: 4.00 out of 5 (3 votes)
Updated: 2001-07-30 12:08:30

 

Important note
We did our best to reach The Everdawn and ask for their permission to publish this tab. Unfortunately they did not respond to our requests or we could not find a way to contact them. This tab is available online until The Everdawn tells us to take it down.


#----------------------------------PLEASE NOTE---------------------------------#
#This file is the author's own work and represents their interpretation of the #
#song. You may only use this file for private study, scholarship, or research. #
#Unless specified otherwise, this is NOT an official tab from the band members.#
#------------------------------------------------------------------------------#

  Visit MetalTabs.com for more metal tablature
  
                     THE EVERDAWN - NEEDLEWORK
                     From the Album POEMS: BURN THE PAST
                     Copyright 1997 (Death Records)
                     Version 1.0 - July 2001

Transcribed by: Chris Ninman

For Questions, Comments, Newest Version, or Corrections contact
       Chris Ninman at:       snowballingblood@hotmail.com

.  - palm mute                    /  - slide up to
\  - slide down to                ~  - vibrato
h  - hammer on                    b  - bend
p  - pull off                          Suffixes for bend
ph - pinch harmonic                     f - full bend    h - half bend
*  - see comment                        r - release      t - tap bend
X  - percussion mute                    ~ - vibrato bend
@  - slight palm mute             () - ghost note, sustained note
"  - tremolo pick until next note  sh - semi harmonic

Tune to B (B,E,A,D,F#,B)

Riff 1 (4 times)
|-----------------------------------------------------|
|-----------------------------------------------------|
|-----------------------------------------------------|
|-------------------------------------10----9----7----|
|----------10-6----------6-9-00000000----00---00------|
|-00000000------00000000------------------------------|
                                         ..   ..
Fill 1
|----------------|
|----------------|
|----------------|
|---------4--1---|
|-2-------2--2---|
|-0-------2------|

Repeat Riff 1 (4 times)

Riff 2 (4 times)
|------------------------------------------------------|
|------------------------------------------------------|
|------------------------------------------------------|
|------------------------------------------------------|
|-10------10------14-15-14-12-9------9------12-14-12-9-|
|----0000----0000---------------0000---0000------------|

Repeat Riff 1 (4 times)

Riff 3 (4 times)
|-------------------------------------------------------------|
|-------------------------------------------------------------|
|-------------------------------------------------------------|
|-------------------------------------------------------------|
|-7---10-9-10--7--9---12-10-12-9--10--9h10p9-6-9--------------|
|-------------------------------------------------8--7--5--3--|
|
|-------------------------------------------------------------|
|-------------------------------------------------------------|
|-------------------------------------------------------------|
|-------------------------------------------------------------|
|-2-------------------------------5--------------10--9--7--5--|
|-0-------------------------------3---------------8--7--5--3--|

Repeat Riff 1 (4 times)
Repeat Riff 3 (4 times)

Riff 4 (2 times)
|----------------------------------------|
|----------------------------------------|
|----------------------------------------|
|----------------------------------------|
|-2--------------7-----10-----12-7-2-----|
|-0--000-000-000---000----000------0-----|
     ... ... ...   ...    ...

Riff 5 (1 time)
|-------------------------------------------------------------------|
|-------------------------------------------------------------------|
|-------------------------------------------------------------------|
|-------------------------------------------------------------------|
|-2--------------7-----10-----12-7-2--------------7-----10-----12-7-|
|-0--000-000-000---000----000------0--000-000-000---000----000------|
|    ... ... ...   ...    ...         ... ... ...   ...    ...
|-------------------------------------------------------------------|
|-------------------------------------------------------------------|
|-------------------------------------------------------------------|
|-------------------------------------------------5-----9------10-5-|
|-2--------------7-----10-----12-7-2--------------------------------|
|-0--000-000-000---000----000------0--000-000-000---000----000------|
     ... ... ...   ...    ...         ... ... ...   ...    ...

Riff 5 cont.
|-------------------------------------------------------------------|
|-------------------------------------------------------------------|
|-------------------------------------------------------------------|
|-------------------------------------------------------------------|
|-2--------------7-----10-----12-7-2--------------7-----10-----12-7-|
|-0--000-000-000---000----000------0--000-000-000---000----000------|
|    ... ... ...   ...    ...         ... ... ...   ...    ...
|-------------------------------------------------------------------|
|-------------------------------------------------------------------|
|-------------------------------------------------------------------|
|----------------5-----9------10-5----------------5-----9------10-5-|
|-2--------------------------------2--------------------------------|
|-0--000-000-000---000----000------0--000-000-000---000----000------|
     ... ... ...   ...    ...         ... ... ...   ...    ...

Riff 6 (1 time)
|-----------------|
|-----------------|
|-----------------|
|-----------------|
|---------0"------|
|-0"--------------|

Repeat Riff 1 (4 times)
Repeat Riff 2 (4 times)
Repeat Riff 3 (4 times)

Ending
|------------------------------------------|
|------------------------------------------|
|------------------------------------------|
|------------------------------------------|
|-------------------------12------2--------|
|--8--7h8p7--5--7--7--11------11--0--------|
|
|------------------------------------------|
|------------------------------------------|
|------------------------------------------|
|------------------------------------------|
|-10---------------9--------------2--------|
|--8---------------7--rest--------0--------|

  Visit MetalTabs.com for more metal tablature

bottom separator

Contact Us | Privacy Policy | Disclaimer | Legal Notice
Copyright © 2001-2014 MetalTabs.com. All Rights Reserved.