top separator

Home

Forum

What's New

Submit a Tab

FAQ

Links

Contact Us

Link to Us

MuSpy.com

MetalTabs.com logo

Bands

0-9

A

B

C

D

E

F

G

H

I

J

K

L

M

N

O

P

Q

R

S

T

U

V

W

X

Y

Z

Search

What

Where
 

Krisiun - "Perpetuation" Guitar Tab

Plain Text Version
More Krisiun Tabs

Hits: 7104
Rated: 5.00 out of 5 (2 votes)
Updated: 2001-07-30 12:01:51

 

Important note
We did our best to reach Krisiun and ask for their permission to publish this tab. Unfortunately they did not respond to our requests or we could not find a way to contact them. This tab is available online until Krisiun tells us to take it down.


#----------------------------------PLEASE NOTE---------------------------------#
#This file is the author's own work and represents their interpretation of the #
#song. You may only use this file for private study, scholarship, or research. #
#Unless specified otherwise, this is NOT an official tab from the band members.#
#------------------------------------------------------------------------------#

  Visit MetalTabs.com for more metal tablature
  
                      KRISIUN - PERPETUATION
                      From the Album  AGELESS VENOMOUS
                      Copyright 2001 (Century Media Records)
                      Version 1.0 - July 2001

Transcribed by: Chris Ninman
For Questions, Comments, Newest Version, or Corrections contact
       Chris Ninman at:       snowballingblood@hotmail.com

 ..  - palm mute          /  - slide up to
 \  - slide down to      ~  - vibrato
 h  - hammer on          b  - bend
 p  - pull off            Suffixes for bend
                          ph - pinch harmonic
                           f - full bend    h - half bend
 *  - see comment           r - release      t - tap bend
 X  - percussion mute       ~ - vibrato bend
 @  - slight palm mute     () - ghost note, sustained note

I = Guitar one, from the left channel
II - Guitar two, from the right channel

The flute intro can be moved down an octave, if desired. It doesn't
sound that great played on guitar, but its there if you want it.

Tuning B  (B,E,A,D,F#,B)

Flute Intro
|-----------------------------------------------------------------|
|-----------------------------------------------------------------|
|-9~-------11--11h12~------\----9~------12--/11~------9~----------|
|-----------------------------------------------------------------|
|-----------------------------------------------------------------|
|-----------------------------------------------------------------|


|----------------------------------------------------------------|
|----------------------------------------------------------------|
|-9~-------------9---12~-------------\-9------------11~---9~-----|
|----------11----------------------------------------------------|
|----------------------------------------------------------------|
|----------------------------------------------------------------|

Riff 1 (2 times)
|------------------------------------------------------------------|
|------------------------------------------------------------------|
|------------------------------------------------------------------|I
|--------------------------------------------8"-9--11"-12--14"-15--|II
|-7"-8---10"-11--7"-8--10"-11--7"-8--10"-11------------------------|
|------------------------------------------------------------------|

Riff 1 cont.
|------------------------------------------------------|
|------------------------------------------------------|
|------------------------------------------------------|I
|--------------------------------------------8"-9--8---|II
|-7"-8---10"-11--7"-8--10"-11--7"-8--10"-11------------|
|------------------------------------------------------|

Riff 2 (2 times)
|------------------------------------------------------------------|
|------------------------------------------------------------------|
|------------------------------------------------------------------|I
|--------------------------------------------8"-9--11"-12--14"-15--|
|-7"-8---10"-11--7"-8--10"-11--7"-8--10"-11------------------------|
|------------------------------------------------------------------|
|
|------------------------------------------------------------------|
|------------------------------------------------------------------|
|------------------------------------------------------------------|II
|------------------------------------------------------------------|
|--------------------------------------------1"-2---4"-5----7"-8---|
|-0"-1----3"-4---0"-1---3"-4---0"-1---3"-4-------------------------|

Riff 2 cont.
|------------------------------------------------------|
|------------------------------------------------------|
|------------------------------------------------------|I
|--------------------------------------------8"-9--8---|
|-7"-8---10"-11--7"-8--10"-11--7"-8--10"-11------------|
|------------------------------------------------------|
|
|------------------------------------------------------|
|------------------------------------------------------|
|------------------------------------------------------|II
|------------------------------------------------------|
|--------------------------------------------1"-2--1---|
|-0"-1----3"-4---0"-1---3"-4---0"-1---3"-4-------------|

Riff 3 (2 times)
|-----------------------------------------------------------|
|-----------------------------------------------------------|
|---------------------------------------------------9"--9---|I
|----------9-8-9-8-9-8--------------9-8-9-8-9-8-9-8---------|
|-7"---8-10-----------10-8-7"---8-10------------------------|
|-----------------------------------------------------------|
|
|-----------------------------------------------------------|
|-----------------------------------------------------------|
|-----------------------------------------------------------|II
|---------------------------------------------------2"--2---|
|----------2-1-2-1-2-1--------------2-1-2-1-2-1-2-1---------|
|-0"---1-3-------------3-1-0"---1-3-------------------------|

Riff 4 (2 times)
|-----------------------------------------------------------|
|-----------------------------------------------------------|
|---------------------------------------------------12"-12--|I
|----------121112111211-------------1211121112111211--------|
|-10"--1113------------131110"--1113------------------------|
|-----------------------------------------------------------|
|
|-----------------------------------------------------------|
|-----------------------------------------------------------|
|-----------------------------------------------------------|II
|---------------------------------------------------5"--5---|
|----------5-4-5-4-5-4--------------5-4-5-4-5-4-5-4---------|
|-3"---4-6-------------6-4-3"---4-6-------------------------|

Riff 5 (2 times)
|--------------------------------------------------------------|
|--------------------------------------------------------------|
|-----------------------------------------------------16"--16--|I
|-----------161516151615--------------1615161516151615---------|
|-14"--15-17------------171514"--15-17-------------------------|
|--------------------------------------------------------------|
|
|--------------------------------------------------------------|
|--------------------------------------------------------------|
|--------------------------------------------------------------|II
|------------------------------------------------------9"--9---|
|-----------9-8-9-8-9-8----------------9-8-9-8-9-8-9-8---------|
|-7"---8-10-------------10-8-7"---8-10-------------------------|

Riff 6 (1 time)
|--------------------------------------------------------|
|--------------------------------------------------------|
|--------------------------------------------------------|I
|--------------------------------------------------------|II
|-777777777777777777777777777777777777777777777777777777-|
|--------------------------------------------------------|

Riff 7 (2 times)
|--------------------------------------------------------|
|--------------------------------------------------------|
|--------------------------------------------------------|I
|----------565---------595---------565---------595--95---|II
|-777777778---777777778---777777778---777777778---87--87-|
|--------------------------------------------------------|

Riff 8 (1 time)
|-----------------------------------------------------------|
|-----------------------ph-----------------------ph--ph-----|
|-----------------------*------------------------*----*-----|I
|----------565---------59p5---------565---------59p5--9p5---|
|-777777778---777777778----777777778---777777778----87---87-|
|-----------------------------------------------------------|
|
|------------------------------------------------------------------|
|------------------------------------------------------------------|
|------------------------------------------------------------------|II
|-------------------898------------------8128------------------898-|
|-101010101010101011---101010101010101011----101010101010101011----|
|------------------------------------------------------------------|

Riff 8 cont.
|-----------------------------------|
|-----------------------------------|
|-----------------------------------|II
|-------------------8128----128-----|
|-101010101010101011----1110---1110-|
|-----------------------------------|

Riff 9 (1 time)
|-----------------------------------------------------------|
|-----------------------ph-----------------------ph--ph-----|
|-----------------------*------------------------*----*-----|I
|----------565---------59p5---------565---------59p5--9p5---|
|-777777778---777777778----777777778---777777778----87---87-|
|-----------------------------------------------------------|
|
|-----------------------------------------------------------------|
|-----------898----------8128----------898----------8128---128----|
|-9999999910---9999999910----9999999910---9999999910----109---109-|II
|-----------------------------------------------------------------|
|-----------------------------------------------------------------|
|-----------------------------------------------------------------|

*For Riff 8 and 9, I did not line up the two guitars, since I thought
that spreading out guitar 1's notes would make it more confusing.

Riff 10 (1 time)
|-----------------------------------------------------------------|
|-----------------------------------------------------------------|
|-----------------------------------------------------------------|I
|-------------------------------------------8"-9--11"-12--14"-15--|
|-7"-8--10"-11--7"-8--10"-11--7"-8--10"-11------------------------|
|-----------------------------------------------------------------|
|
|-----------------------------------------------------------------|
|-----------------------------------------------------------------|
|-----------------------------------------------------------------|II
|-------------------------------------------11"12--14"15--17"-18--|
|-10"11--13"14--10"11--13"14--10"11--13"14------------------------|
|-----------------------------------------------------------------|

Riff 10 cont.
|------------------------------------------------------|
|------------------------------------------------------|
|------------------------------------------------------|I
|--------------------------------------------8"-9--8---|
|-7"-8---10"-11--7"-8--10"-11--7"-8--10"-11------------|
|------------------------------------------------------|
|
|------------------------------------------------------|
|------------------------------------------------------|
|------------------------------------------------------|II
|-------------------------------------------11"12--11--|
|-10"11--13"14--10"11--13"14--10"11--13"14-------------|
|------------------------------------------------------|

Riff 11 (3 times)
|----------------------------------------------------|
|----------------------------------------------------|
|----------------------------------------------------|I
|----------------------------------------------------|II
|---------------------------11"10--8"7--10"-9--8"-7--|
|-7"-6--8"-7--11"10--13"12---------------------------|

Riff 11 cont.
|-----------------------------------------------------|
|-----------------------------------------------------|
|-----------------------------------------------------|I
|-----------------------------------------------------|II
|---------------------------11"10--8"7--11"10--14"13--|
|-7"-6--8"-7--11"10--13"12----------------------------|

Repeat Riff 1 (1 time)
Repeat Riff 11 (3 times)
Repeat Riff 1 (2 times)
Repeat Riff 3 (2 times)
Repeat Riff 4 (2 times)
Repeat Riff 5 (2 times)
Repeat Riff 6 (1 time)
Repeat Riff 7 (4 times)
Repeat Riff 8 (1 time)
Repeat Riff 9 (1 time)

Fill 1
|-----|
|-----|
|-----|I
|-----|
|-7---|
|-----|
|
|-----|
|-----|
|-9---|II
|-----|
|-----|
|-----|

Riff 12 (2 times)
|--------------------------------------------------------------------|
|--------------------------------------------------------------------|
|--------------9"10-12"13--9"10--8"-9--------------9"10-12"13-15"16--|I
|--------8"-9--------------------------------8"-9--------------------|
|--7"-8--------------------------------7"-8--------------------------|
|--------------------------------------------------------------------|
|
|--------------------------------------------------------------------|
|--------------------------------------------------------------------|
|-------------12"13-15"16-12"13-11"12-------------12"13-15"16-18"19--|II
|-------11"12-------------------------------11"12--------------------|
|-10"11-------------------------------10"11--------------------------|
|--------------------------------------------------------------------|

Fill 2
|----|
|----|
|----|I
|-9--|II
|-7--|
|-0--|

Riff 13 (4 times)
|-------------------------------------------------------|
|-------------------------------------------------------|
|-9-9-9-9---9-9-9-9---9-9-9-9---9"-10"-12"-13"-12"-10"--|I
|-9-9-9-9---9-9-9-9---9-9-9-9---9"-10"-12"-13"-12"-10"--|II
|-7-7-7-7---7-7-7-7---7-7-7-7---7"--8"-10"-11"-10"--8"--|
|-------------------------------------------------------|

Riff 14 (2 times)
|-----------------------------------------------------|
|-----------------------------------------------------|
|-7-7-7-7---7-7-7-7---7-7-7-7---7"-8"-10"-11"-10"-8"--|I
|-7-7-7-7---7-7-7-7---7-7-7-7---7"-8"-10"-11"-10"-8"--|II
|-5-5-5-5---5-5-5-5---5-5-5-5---5"-6"--8"--9"--8"-6"--|
|-----------------------------------------------------|

Repeat Riff 13 (2 times)

Riff 15 (2 times)
|--------------------------------------------------------------------|
|--------------------------------------------------------------------|
|-12-12-12-12---12-12-12-12---12-12-12-12---12"-13"-15"-16"-15"-13"--|I
|-12-12-12-12---12-12-12-12---12-12-12-12---12"-13"-15"-16"-15"-13"--|II
|-10-10-10-10---10-10-10-10---10-10-10-10---10"-11"-13"-14"-13"-11"--|
|--------------------------------------------------------------------|

Riff 16 (12 times)
|-----------------------------------------|
|-----------------------------------------|
|-----------------------------------------|I
|-2-2-2-2---2-2-2-2---2-2-2-2---------3---|II
|-2-2-2-2---2-2-2-2---2-2-2-2---------3---|
|-0-0-0-0---0-0-0-0---0-0-0-0---0-0-0-1---|
                                . . .

Riff 17 (2 times)
|------------------------------------|
|------------------------------------|
|------------------------------------|
|-2--------2--------2----------------|
|-2--------2--------2----------------|
|-0--------0--------0----------------|
|
|------------------------------------|
|------------------------------------|
|------------------------------------|
|-9--------9--------9----------------|
|-7--------7--------7----------------|
|-0--------0--------0----------------|

Repeat Riff 2 (2 times)
Repeat Riff 17 (2 times)

Ending
|----|
|----|
|----|I
|-2--|II
|-2--|
|-0--|

  Visit MetalTabs.com for more metal tablature

bottom separator

Contact Us | Privacy Policy | Disclaimer | Legal Notice
Copyright © 2001-2014 MetalTabs.com. All Rights Reserved.