top separator

Home

Forum

What's New

Submit a Tab

FAQ

Links

Contact Us

Link to Us

MuSpy.com

MetalTabs.com logo

Bands

0-9

A

B

C

D

E

F

G

H

I

J

K

L

M

N

O

P

Q

R

S

T

U

V

W

X

Y

Z

Search

What

Where
 

Destruction - "Trash Attack" Guitar Tab

Plain Text Version
More Destruction Tabs

Hits: 10209
Rated: 4.25 out of 5 (4 votes)
Updated: 2002-05-27 11:44:32

 

By:

death8699

sendpm.gif

email.gif

Important note
This tab is available online because we obtained explicit permission from Destruction or their label.


#----------------------------------PLEASE NOTE---------------------------------#
#This file is the author's own work and represents their interpretation of the #
#song. You may only use this file for private study, scholarship, or research. #
#Unless specified otherwise, this is NOT an official tab from the band members.#
#------------------------------------------------------------------------------#

  Visit MetalTabs.com for more metal tablature
  
          D E S T R U C T I O N - T H R A S H  A T T A C K [L i v e]
                  From the Album LIVE WITHOUT SENSE
                   Copyright 1989 STEAMHAMMER/SPV

                       Version 3.0 - JUL '02

Transcribed by: death8699

For Questions, Comments, Newest Version, or Corrections contact
 death8699: at ArchEnemies@aol.com

Check Out Death8699.com With More Transcriptions at:
 http://www.death8699.com

..  - palm mute          /  - slide up to
 \  - slide down to      ~  - vibrato
 h  - hammer on          b  - bend
 p  - pull off            Suffixes for bend
                          ph - pinch harmonic
                           f - full bend    h - half bend
*  - see comment           r - release      t - tap bend
X  - percussion mute       ~ - vibrato bend
@  - slight palm mute     () - ghost note, sustained note

Tune Gtr to E [Standard]

--T H R A S H  A T T A C K (Live)--

Riff A                          [4tx]
[-----|-----------------------------]
[-----|-----------------------------]
[*----|----------------------------*][Gtrs.1&2]
[*-2--|----------------------------*]
[--2--|--------3__2--------3__2-----]
[--0--|--0--1---p----0--1---p----1--]
   ^     .  .        .  .        .
                         [End Riff A]


Riff B
[--------------------------------------------------]
[--------------------------------------------------]
[*------------------------------------------------*][Gtrs.1&2]
[*-------------------7--------------------8-------*]
[--0--0--7--0--0--8-----0--0--8--0--0--8-----0--0--]
[--------------------------------------------------]
   .  .  .  .  .  .     .  .  .  .  .  .     .  .

                                          [4tx]
[---------------------------------------------]
[---------------------------------------------]
[*---------------------7---------------------*][Gtrs.1&2]
[*-------------7----------8-----------8------*]
[--7--0--0--8-----0--0-------0--0--8-----<0>--]
[---------------------------------------------]
   .  .  .  .     .  .       .  .  .      .
                                   [End Riff B]


[<> = Pickup note.]


Riff C
[---------------------------------------------------]
[---------------------------------------------------]
[*-------------------------------------------------*][Gtrs.1&2]
[*----------8---------------------8----------------*]
[--------7-----7~~-------------8-----8~~------------]
[--0--0-----------0--0--0--0------------0--0--0--0--]
   .  .           .  .  .  .            .  .  .  .

                                            [2tx]
[-----------------------------------------------]
[-----------------------------------------------]
[*---------------------------------------------*][Gtrs.1&2]
[*----------------8----------------------------*]
[--------------7-----7~~------3__2--------3__2--]
[--0--0--0--0-----------0--1---p----0--1---p----]
   .  .  .  .           .  .        .  .
                                     [End Riff C]


Riff D
[-------------------------------------------------]
[-------------------------------------------------]
[*-----------------------------------------------*][Gtrs.1&2]
[*-------9--8-8-7--------------9--8-8-7----------*]
[---------------------8---------------------8-----]
[--0--0------------0-----0--0------------0-----0--]
   .  .            .     .  .            .     .

                                       [2tx]
[------------------------------------------]
[------------------------------------------]
[*----------------------------------------*][Gtrs.1&2]
[*----------------------------------------*]
[-----3--2--------3--2-----2--1-1-0--------]
[--1--------0--1--------0------------0--1--]
   .        .  .        .            .  .
                               [End Riff D]


Riff B 4tx
Riff C 2tx
Riff D 2tx
Riff A 4tx


Riff E
[----------------------------------------------]
[----------------------------------------------]
[*--------------------------------------------*][Gtrs.1&2]
[*--------------------------------------------*]
[----------------------------3--2--------3--2--]
[--0--00000--0--00000--0--1--------0--1--------]
   .  .....  .  .....  .  .        .  .

                                           [2tx]
[----------------------------------------------]
[----------------------------------------------]
[*--------------------------------------------*][Gtrs.1&2]
[*--------------------------------------------*]
[----------------------------3--2--------3--2--]
[--3--33333--3--33333--0--1--------0--1--------]
   .  .....  .  .....  .  .        .  .
                                    [End Riff E]


Riff F
[---------------------------------------------]
[---------------------------------------------]
[*-------------------------------------------*][Gtrs.1&2]
[*--------------------------4--3-------4--3--*]
[----------------------222--------222---------]
[--0--00000--0--00000-------------------------]
   .  .....  .  .....  ...        ...

                                    [2tx]
[---------------------------------------]
[---------------------------------------]
[*-------------------------------------*][Gtrs.1&2]
[*--------------------4--3-------4--3--*]
[----------------222--------222---------]
[--33333--33333-------------------------]
   .....  .....  ...        ...
                             [End Riff F]


Riff G
[-----------------------------------------------]
[-----------------------------------------------]
[*---------------------------------------------*][Gtrs.1&2]
[*------4--3-------4--3-------5--4-------5--4--*]
[--222--------222--------333--------333---------]
[-----------------------------------------------]
   ...        ...        ...        ...

                                            [2tx]
[-----------------------------------------------]
[-----------------------------------------------]
[*---------------------------------------------*][Gtrs.1&2]
[*------2--1-------2--1-------3--2-------3--2--*]
[--000--------000--------111--------111---------]
[-----------------------------------------------]
   ...        ...        ...        ...
                                     [End Riff G]


Riff H
[-------------------------------------------------]
[-------------------------------------------------]
[*-----------------------------------------------*][Gtrs.1&2]
[*------9--8-------9--8-------10--9-------10--9--*]
[--777--------777--------888---------888----------]
[-------------------------------------------------]
   ...        ...        ...         ...

                                             [2tx]
[------------------------------------------------]
[------------------------------------------------]
[*----------------------------------------------*][Gtrs.1&2]
[*-------7--6-------7--6-------8--7-------8--7--*]
[---555--------555--------666--------666---------]
[------------------------------------------------]
    ...        ...        ...        ...
                                      [End Riff H]


Riff I
[-----------------------------------------------]
[-----------------------------------------------]
[*---------------------------------------------*][Gtrs.1&2]
[*------8--7-------8--7-------9--8-------9--8--*]
[--666--------666--------777--------777---------]
[-----------------------------------------------]
   ...        ...        ...        ...

                                            [2tx]
[-----------------------------------------------]
[-----------------------------------------------]
[*---------------------------------------------*][Gtrs.1&2]
[*------6--5-------6--5-------7--6-------7--6--*]
[--444--------444--------555--------555---------]
[-----------------------------------------------]
   ...        ...        ...        ...
                                     [End Riff I]


Riff J
[-----------------------------------------------------]
[-----------------------------------------------------]
[*---------------------------------------------------*][Gtrs.1&2]
[*-------------------8--8----------------------------*]
[-----8_7-------8_7-----------8_7-------7_5-7_5-7--7--]
[--0---p---000---p---------0---p---000---p---p--------]
           ...                     ...

[-----------------------------------------------------]
[-----------------------------------------------------]
[*---------------------------------------------------*][Gtrs.1&2]
[*-------------------------------------------2-------*]
[--3_2-------3_2-3--3-----3_2-------2_0-2_0--2--------]
[---p---000---p--------0---p---000---p---p---0--0--0--]
        ...                    ...              .  .

               [4tx][Final]
[------------------][--------]
[------------------][--------]
[*----------------*][*-9\---*][Gtrs.1&2]
[*----------------*][*-9\---*]
[------------------][--7\----]
[--000--0--0--000--][--------]
   ...  .  .  ...      ^
        [End Riff J] [End]


Check Out Death8699.com With More Transcriptions at:
 http://www.death8699.com

  Visit MetalTabs.com for more metal tablature

bottom separator

Contact Us | Privacy Policy | Disclaimer | Legal Notice
Copyright © 2001-2014 MetalTabs.com. All Rights Reserved.