top separator

Home

Forum

What's New

Submit a Tab

FAQ

Links

Contact Us

Link to Us

MuSpy.com

MetalTabs.com logo

Bands

0-9

A

B

C

D

E

F

G

H

I

J

K

L

M

N

O

P

Q

R

S

T

U

V

W

X

Y

Z

Search

What

Where
 

Krisiun - "Intro / Ravager" Guitar Tab

Plain Text Version
More Krisiun Tabs

Hits: 4925
Rated: 3.50 out of 5 (4 votes)
Updated: 2001-07-25 14:09:43

 

Important note
We did our best to reach Krisiun and ask for their permission to publish this tab. Unfortunately they did not respond to our requests or we could not find a way to contact them. This tab is available online until Krisiun tells us to take it down.


#----------------------------------PLEASE NOTE---------------------------------#
#This file is the author's own work and represents their interpretation of the #
#song. You may only use this file for private study, scholarship, or research. #
#Unless specified otherwise, this is NOT an official tab from the band members.#
#------------------------------------------------------------------------------#

  Visit MetalTabs.com for more metal tablature
  
                              KRISIUN - RAVAGER
                   From the Album CONQUERORS OF ARMAGEDDON
                    Copyright 2000 (Century Media Records)
                           Version 1.0 - May 2001

Transcribed by: Chris Ninman
For Questions, Comments, Newest Version, or Corrections contact
       Chris Ninman at:       snowballingblood@hotmail.com

.  - palm mute                    /  - slide up to
\  - slide down to                ~  - vibrato
h  - hammer on                    b  - bend
p  - pull off                          Suffixes for bend
ph - pinch harmonic                     f - full bend    h - half bend
*  - see comment                        r - release      t - tap bend
X  - percussion mute                    ~ - vibrato bend
@  - slight palm mute             () - ghost note, sustained note
"  - tremolo pick until next note

Like all songs from Apocalyptic Revelations or Conquerors of Armageddon,
this song is divided into the right and left channel. When there is more
than one guitar in a riff, the top is the left channel and the bottom is
the right channel. If only one guitar part is shown, both channels are
playing the same thing. Riff 9 may look a little weird, but if played
fast, I think it should be right. Enjoy!

Tune to C# (C#,F#,B,E,G#,C#)

Riff 1 (6 times)
|---------------------------------------|
|---------------------------------------|
|---------------------------------------|
|-9-------10--------9-------------------|
|-7--------8--------7-------------------|
|---8"7"8"---9"8"9"---8"7"8"-11"8"10"7"-|
|
|---------------------------------------|
|---------------------------------------|
|-9-------10--------9-------------------|
|---------------------------------------|
|-7--------8--------7-------------------|
|---8"7"8"---9"8"9"---8"7"8"-11"8"10"7"-|

Riff 2 (2 times)
|-------------------------------------|
|-------------------------------------|
|-------------------------------------|
|-4--------3--------4--------3--------|
|-2--------1--------2--------1--------|
|---3"2"3"---2"1"2"---3"2"3"---2"1"2"-|
|
|-------------------------------------|
|-------------------------------------|
|-4--------3--------4--------3--------|
|-------------------------------------|
|-2--------1--------2--------1--------|
|---3"2"3"---2"1"2"---3"2"3"---2"1"2"-|

Riff 3 (2 times)
|----------------------------------------------|
|----------------------------------------------|
|----------------------------------------------|
|--9--------10----------9----------------------|
|--7---------8----------7----------------------|
|---8"-7"-8"---9"-8"-9"---8"-7"-8"-11"-8"10"7"-|
|
|----------------------------------------------|
|----------------------------------------------|
|-11--------12---------11----------------------|
|--9--------10----------9----------------------|
|---10"9"10"--11"10"11"---10"9"10"-13"10"12"9"-|
|----------------------------------------------|

Fill 1
|----------|
|----------|
|----------|
|----------|
|----------|
|-00000000-|

Riff 5 (2 times)
|-----------------------------------------|
|-----------------------------------------|
|-----------------------------------------|
|-8/9----12/13----8/9---------------------|
|-6/7----10/11----6/7----4444333355552222-|
|----0000-----0000---00002222111133330000-|
|
|-----------------------------------------|
|-----------------------------------------|
|-8/9----12/13----8/9---------------------|
|-----------------------------------------|
|-6/7----10/11----6/7----4444333355552222-|
|----0000-----0000---00002222111133330000-|

Riff 6 (7 times)
|-----------------------------------------|
|-----------------------------------------|
|-----------------------------------------|
|-8/9----12/13----8/9---------------------|
|-6/7----10/11----6/7----4444333355552222-|
|----0000-----0000---00002222111133330000-|

Repeat Riff 1 (1 time)

Riff 7 (1 time)
|-------------------------------------------------|
|-------------------------------------------------|
|-------------------------------------------------|
|--9---------10-----------9-----------------------|
|--7----------8-----------7-----------------------|
|---8"-7"-8"----9"-8"-9"----8"-7"-8"--11"-8"10"7"-|
|
|-------------------------------------------------|
|-------------------------------------------------|
|-12----------13---------12-----------------------|
|-------------------------------------------------|
|-10----------11---------10-----------------------|
|---11"10"11"---12"11"12"--11"10"11"-14"11"13"10"-|

Repeat Fill 1 (1 time)
Repeat Riff 6 (9 times)
Repeat Riff 1 (2 times)
Repeat Riff 3 (2 times)
Repeat Riff 2 (2 times)

Riff 8 (times)
|--------------------------------|
|--------------------------------|
|--------------------------------|
|--------------------------------|
|-22222---22222---2222222222222--|
|-00000---00000---0000000000000--|

Riff 9 (8 times)
|-----------------|
|-----------------|
|-----------------|
|-----------------|
|-----------------|
|-4-1-0-1-1-0-0-1-|
|
|-----------------|
|-----------------|
|-----------------|
|-----------------|
|-6-3-2-3-3-2-2-3-|
|-----------------|

Repeat Riff 8 (2 times)
Repeat Riff 9 (8 times)
Repeat Riff 8 (2 times) with Riff 10 over it

Riff 10
|-12~--13~--20~--19~--17-16-13~--12~-|
|------------------------------------|
|------------------------------------|
|------------------------------------|
|------------------------------------|
|------------------------------------|
|
|------------------------------------|
|------------------------------------|
|--9~--10~--17~--16~--14-13-10~---9~-|
|------------------------------------|
|------------------------------------|
|------------------------------------|

Repeat Riff 9 (8 times)

Riff 11 (2 times)
|----------------------------------------------------|
|----------------------------------------------------|
|----------------------------------------------------|
|----------------------------------------------------|
|-222222222---222222222---2222222222222222222222222--|
|-000000000---000000000---0000000000000000000000000--|

Repeat Riff 9 (8 times)
Repeat Riff 1 (2 times)
Repeat Riff 7 (2 times)
Repeat Fill 1 (1 times)
Repeat Riff 6 (7 times)

Ending
|----------------------------------|
|----------------------------------|
|----------------------------------|
|-8/9----12/13----8/9--------------|
|-6/7----10/11----6/7----444433332-|
|----0000-----0000---0000222211110-|

  Visit MetalTabs.com for more metal tablature

bottom separator

Contact Us | Privacy Policy | Disclaimer | Legal Notice
Copyright © 2001-2014 MetalTabs.com. All Rights Reserved.