top separator

Home

Forum

FAQ

Contact Us

Link to Us

MetalTabs.com logo

Bands

0-9

A

B

C

D

E

F

G

H

I

J

K

L

M

N

O

P

Q

R

S

T

U

V

W

X

Y

Z

Krisiun - "Abyssal Gates" Guitar Tab

Plain Text Version
More Krisiun Tabs

Hits: 4948
Rated: 5.00 out of 5 (2 votes)
Updated: 2001-07-25 13:58:46


#----------------------------------PLEASE NOTE---------------------------------#
#This file is the author's own work and represents their interpretation of the #
#song. You may only use this file for private study, scholarship, or research. #
#Unless specified otherwise, this is NOT an official tab from the band members.#
#------------------------------------------------------------------------------#

  Visit MetalTabs.com for more metal tablature
  
                            KRISIUN - ABYSSAL GATES
                   From the Album CONQUERORS OF ARMAGEDDON
                    Copyright 2000 (Century Media Records)
                           Version 1.0 - May 2001

Transcribed by: Chris Ninman
For Questions, Comments, Newest Version, or Corrections contact
       Chris Ninman at:       snowballingblood@hotmail.com

.  - palm mute                    /  - slide up to
\  - slide down to                ~  - vibrato
h  - hammer on                    b  - bend
p  - pull off                          Suffixes for bend
ph - pinch harmonic                     f - full bend    h - half bend
*  - see comment                        r - release      t - tap bend
X  - percussion mute                    ~ - vibrato bend
@  - slight palm mute             () - ghost note, sustained note
"  - tremolo pick until next note

Like all songs from Apocalyptic Revelations or Conquerors of Armageddon,
this song is divided into the right and left channel. When there is more
than one guitar in a riff, the top is the left channel and the bottom is
the right channel. If only one guitar part is shown, both channels are
playing the same thing. Riff 15 and 16 play the almost the exact thing
as in Riff 5 and 6, just that the guitars switch the parts. The picking
is slightly changed from time to time, but all the notes should be there.
Change picking as you see necessary.

Tune to C# (C#,F#,B,E,G#,C#)

Fill 1
|-------|
|-------|
|-------|
|-------|
|-------|
|-1"-0--|

Riff 1 (8 times)
|-------------------------------|
|-------------------------------|
|-------------------------------|
|-------------------------------|
|-------------------------------|
|-3"-2--6"-3--5"-2--3"-2--1"-0--|

Riff 2 (1 time)
|---------------------------------------------------|
|---------------------------------------------------|
|---------------------------------------------------|
|---------------------------------------------------|
|---------------------------------------------------|
|-7"-6--7"-10--7"-6--7"-10--7"-6--3"-4--7"-6--1"-0--|

Riff 2a (1 time)
|------------------------------------------------------|
|------------------------------------------------------|
|------------------------------------------------------|
|------------------------------------------------------|
|----------------------------------------8"-11"-14-----|
|-7"-6--7"-10--7"-6--7"-10--7"-6--7"-10-------------0--|

Repeat Riff 2 (1 time)

Riff 2b (1 time)
|------------------------------------------------------|
|------------------------------------------------------|
|------------------------------------------------------|
|------------------------------------------------------|
|----------------------------------------8"-11"-14-----|
|-7"-6--7"-10--7"-6--7"-10--7"-6--7"-10-------------0--|
|
|------------------------------------------------------|
|------------------------------------------------------|
|------------------------------------------------------|
|----------------------------------------8"-11"-14-----|
|-7"-6--7"-10--7"-6--7"-10--7"-6--7"-10----------------|
|---------------------------------------------------0--|

Repeat Fill 1
Repeat Riff 1 (4 times)

Riff 3 (4 times)
|-------------------------------------|
|-------------------------------------|
|-------------------------------------|
|-------------------------------------|
|-7"-10--8"--11--7"-10--6"-9---5"-8---|
|-------------------------------------|
|
|-------------------------------------|
|-------------------------------------|
|-------------------------------------|
|-9"-12--10"-13--9"-12--8"-11--7"-10--|
|-------------------------------------|
|-------------------------------------|

Fill 2
|-------|
|-------|
|-------|
|-------|
|-------|
|-0----0|

Riff 4 (11 times)
|---------------------------------|
|---------------------------------|
|---------------------------------|
|-4--3--6--5--9--8--10--9---------|
|--------------------------3-3-2--|
|-2--1--4--3--7--6---8--7--1-1-0--|

Riff 5 (2 times)
|-----------------------------------------------------------|
|-----------------------------------------------------------|
|-----------------------------------------------------------|
|-8--7--11--10--8--7--141413--8--7--11--10--14--13--171716--|
|-----------------------------------------------------------|
|-6--5---9---8--6--5--121211--6--5---9---8--12--11--151514--|
|
|-----------------------------------------------------------|
|-----------------------------------------------------------|
|-----------------------------------------------------------|
|-----------------------------------------------------------|
|-8--7--11--10--8--7--14--13--8--7--11--10--14--13--171716--|
|-6--5---9---8--6--5--12--11--6--5---9---8--12--11--151514--|

Repeat Riff 4 (11 times)

Riff 6 (2 times)
|-----------------------------------------------------------|
|-----------------------------------------------------------|
|-----------------------------------------------------------|
|-8--7--11--10--8--7--141413--8--7--11--10--14--13--171716--|
|-----------------------------------------------------------|
|-6--5---9---8--6--5--121211--6--5---9---8--12--11--151514--|
|
|-----------------------------------------------------------|
|-----------------------------------------------------------|
|-----------------------------------------------------------|
|-----------------------------------------------------------|
|---------------------10"--9----------------10"--9--13"-12--|
|-9"-8--12"-11--9"-8----------9"-8--12"-11------------------|

Repeat Fill 1
Repeat Riff 1 (8 times)
Repeat Riff 3 (4 times)

Riff 7 (7 times)
|------------------|
|------------------|
|------------------|
|------------------|
|----------8p78p7-|
|-000000007---00---|

Riff 8 (3 times)
|-----------------------|
|-----------------------|
|-----------------------|
|-----------------------|
|------------8p7---8p7-|
|-00000000-7-----00-----|
|
|-----------------------|
|-----------------------|
|-----------------------|
|-----------------------|
|-----------13p1213p12-|
|-0000000012-----00-----|

Riff 9 (1 time)
|------------------|
|------------------|
|------------------|
|----------------9-|
|----------------7-|
|-0000000000000070-|

Riff 10 (4 times)
|------------------------------------|
|------------------------------------|
|------------------------------------|
|------------------------------------|
|------------------------------------|
|-7-6-5--8-7-6--5-4-3--6-5-4--2-1-0--|

Riff 11 (2 times)
|--------------------------------|
|--------------------------------|
|--------------------------------|
|--------------------------------|
|--------------------------------|
|-8-7-6--11-10-9--8-7-6--10-9-8--|
|
|--------------------------------|
|--------------------------------|
|--------------------------------|
|--------------------------------|
|-8-7-6--11-10-9--8-7-6--10-9-8--|
|--------------------------------|

Riff 12 (2 times)
|-------------------------------------|
|-------------------------------------|
|-------------------------------------|
|-------------------------------------|
|-------------------------------------|
|--8-7-6---11-10-9---8-7-6---10-9-8---|
|
|-------------------------------------|
|-------------------------------------|
|-------------------------------------|
|-------------------------------------|
|-10-9-8--13-12-11-10-9-8-12-11-10--|
|-------------------------------------|

Repeat Riff 10 (4 times)

Riff 13 (2 times)
|-----------------------------|
|-----------------------------|
|-----------------------------|
|-----------------------------|
|-----------------------------|
|-2-1-0--4-3-2--3-2-1--2-1-0--|
|
|-----------------------------|
|-----------------------------|
|-----------------------------|
|-----------------------------|
|-4-3-2--6-5-4--5-4-3--4-3-2--|
|-----------------------------|

Riff 14 (2 times)
|-----------------------------|
|-----------------------------|
|-----------------------------|
|-----------------------------|
|-----------------------------|
|-2-1-0--4-3-2--3-2-1--2-1-0--|
|
|-----------------------------|
|-----------------------------|
|-----------------------------|
|-----------------------------|
|-9-8-7-11-10-9-10-9-8-9-8-7--|
|-----------------------------|

Repeat Fill 1
Repeat Riff 1 (4 times)

Riff 15
|-----------------------------------------------------------|
|-----------------------------------------------------------|
|-----------------------------------------------------------|
|-----------------------------------------------------------|
|-8--7--11--10--8--7--141413--8--7--11--10--14--13--171716--|
|-6--5---9---8--6--5--121211--6--5---9---8--12--11--151514--|
|
|-----------------------------------------------------------|
|-----------------------------------------------------------|
|-----------------------------------------------------------|
|-8--7--111110--8--7--141413--8--7--111110--14--13--171716--|
|-----------------------------------------------------------|
|-6--5---9-9-8--6--5--121211--6--5---9-9-8--12--11--151514--|

Riff 16
|-----------------------------------------------------------|
|-----------------------------------------------------------|
|-----------------------------------------------------------|
|-----------------------------------------------------------|
|---------------------10"--9----------------10"--9--13"-12--|
|-9"-8--12"-11--9"-8----------9"-8--12"-11------------------|
|
|-----------------------------------------------------------|
|-----------------------------------------------------------|
|-----------------------------------------------------------|
|-8--7--111110--8--7--141413--8--7--111110--14--13--171716--|
|-----------------------------------------------------------|
|-6--5---9-9-8--6--5--121211--6--5---9-9-8--12--11--151514--|

Repeat Fill 1
Repeat Riff 1 (4 times)

Riff 17 (2 times)
|-------------------------------------|
|-------------------------------------|
|-------------------------------------|
|-------------------------------------|
|-7"-10--8"--11--7"-10--6"-9---5"-8---|
|-------------------------------------|

Riff 18 (2 times)
|----------------------------------|
|----------------------------------|
|----------------------------------|
|----------------------------------|
|-7"-10--8"-11--7"-10--6"-9--5"-8--|
|----------------------------------|
|
|----------------------------------|
|----------------------------------|
|----------------------------------|
|-5"-8---6"--9--5"-8---4"-7--3"-6--|
|----------------------------------|
|----------------------------------|

Fill 3
|------|
|------|
|------|
|------|
|-2----|
|-0----|

Fill 4
|-----------------|
|-----------------|
|-----------------|
|-----------------|
|-2-------3-2-----|
|---5-3-2-----5-3-|

Riff 19 (6 times)
|---------------------------------|
|---------------------------------|
|---------------------------------|
|---------------------------------|
|-----------------2-------3-2-----|
|-0-0-0-0-0-0-0-0---5-3-2-----5-3-|

Riff 20 (8 times)
|---------------------------------|
|---------------------------------|
|---------------------------------|
|---------------------------------|
|-----------------2-------3-2-----|
|-0000000000000000--5-3-2-----5-3-|

Repeat Riff 19 (6 times)

Riff 21 (1 time)
|-----------------------------------------------------------------|
|-----------------------------------------------------------------|
|-----------------------------------------------------------------|
|-----------------------------------------------------------------|
|-----------------2-------3-2---------------------2-------3-2-----|
|-0000000000000000--5-3-2-----5-3-0000000000000000--5-3-2-----5-3-|
|
|-----------------------------------------------------------------|
|-----------------------------------------------------------------|
|-----------------------------------------------------------------|
|-3---------------------------------------------------------------|
|-1---------------------------------------------------------------|
|-----------------------------------------------------------------|

Riff 22 (2 times)
|---------------------------------|
|---------------------------------|
|---------------------------------|
|---------------------------------|
|-----------------2-------3-2-----|
|-0000000000000000--5-3-2-----5-3-|
|
|---------------------------------|
|---------------------------------|
|---------------------------------|
|-----------------2-------3-2-----|
|-------------------5-3-2-----5-3-|
|-0000000000000000----------------|

Repeat Riff 21 (1 time)
Repeat Riff 22 (3 times)

Ending
|----------------------------------|
|----------------------------------|
|----------------------------------|
|-3-----------------------4-3------|
|-1-----------------------2-1-3-2--|
|-----------------------------1-0--|

  Visit MetalTabs.com for more metal tablature

bottom separator

Contact Us | Privacy Policy | Disclaimer
Copyright © 2001-2014 MetalTabs.com. All Rights Reserved.